  0
SECTION
  2
HEADER
  9
$ACADVER
  1
AC1015
  9
$ACADMAINTVER
 70
     6
  9
$DWGCODEPAGE
  3
ANSI_1254
  9
$INSBASE
 10
0.0
 20
0.0
 30
0.0
  9
$EXTMIN
 10
0.0
 20
0.0
 30
0.0
  9
$EXTMAX
 10
279.4
 20
215.9
 30
0.0
  9
$LIMMIN
 10
0.0
 20
0.0
  9
$LIMMAX
 10
279.4
 20
215.9
  9
$ORTHOMODE
 70
     0
  9
$REGENMODE
 70
     1
  9
$FILLMODE
 70
     1
  9
$QTEXTMODE
 70
     0
  9
$MIRRTEXT
 70
     1
  9
$LTSCALE
 40
1.0
  9
$ATTMODE
 70
     1
  9
$TEXTSIZE
 40
3.5
  9
$TRACEWID
 40
1.0
  9
$TEXTSTYLE
  7
Standard
  9
$CLAYER
  8
0
  9
$CELTYPE
  6
ByLayer
  9
$CECOLOR
 62
   256
  9
$CELTSCALE
 40
1.0
  9
$DISPSILH
 70
     0
  9
$DIMSCALE
 40
1.0
  9
$DIMASZ
 40
3.5
  9
$DIMEXO
 40
1.0
  9
$DIMDLI
 40
3.75
  9
$DIMRND
 40
0.0
  9
$DIMDLE
 40
0.0
  9
$DIMEXE
 40
1.0
  9
$DIMTP
 40
0.0
  9
$DIMTM
 40
0.0
  9
$DIMTXT
 40
3.5
  9
$DIMCEN
 40
2.5
  9
$DIMTSZ
 40
0.0
  9
$DIMTOL
 70
     0
  9
$DIMLIM
 70
     0
  9
$DIMTIH
 70
     1
  9
$DIMTOH
 70
     1
  9
$DIMSE1
 70
     0
  9
$DIMSE2
 70
     0
  9
$DIMTAD
 70
     1
  9
$DIMZIN
 70
     0
  9
$DIMBLK
  1

  9
$DIMASO
 70
     1
  9
$DIMSHO
 70
     1
  9
$DIMPOST
  1

  9
$DIMAPOST
  1

  9
$DIMALT
 70
     0
  9
$DIMALTD
 70
     3
  9
$DIMALTF
 40
0.0393700787
  9
$DIMLFAC
 40
1.0
  9
$DIMTOFL
 70
     1
  9
$DIMTVP
 40
0.0
  9
$DIMTIX
 70
     0
  9
$DIMSOXD
 70
     0
  9
$DIMSAH
 70
     0
  9
$DIMBLK1
  1

  9
$DIMBLK2
  1

  9
$DIMSTYLE
  2
ISO-25
  9
$DIMCLRD
 70
     0
  9
$DIMCLRE
 70
     0
  9
$DIMCLRT
 70
     0
  9
$DIMTFAC
 40
1.0
  9
$DIMGAP
 40
1.524
  9
$DIMJUST
 70
     0
  9
$DIMSD1
 70
     0
  9
$DIMSD2
 70
     0
  9
$DIMTOLJ
 70
     0
  9
$DIMTZIN
 70
     0
  9
$DIMALTZ
 70
     0
  9
$DIMALTTZ
 70
     0
  9
$DIMUPT
 70
     0
  9
$DIMDEC
 70
     2
  9
$DIMTDEC
 70
     2
  9
$DIMALTU
 70
     2
  9
$DIMALTTD
 70
     3
  9
$DIMTXSTY
  7
Standard
  9
$DIMAUNIT
 70
     0
  9
$DIMADEC
 70
     2
  9
$DIMALTRND
 40
0.0
  9
$DIMAZIN
 70
     0
  9
$DIMDSEP
 70
    44
  9
$DIMATFIT
 70
     3
  9
$DIMFRAC
 70
     0
  9
$DIMLDRBLK
  1

  9
$DIMLUNIT
 70
     2
  9
$DIMLWD
 70
    -2
  9
$DIMLWE
 70
    -2
  9
$DIMTMOVE
 70
     0
  9
$LUNITS
 70
     2
  9
$LUPREC
 70
     2
  9
$SKETCHINC
 40
1.0
  9
$FILLETRAD
 40
10.0
  9
$AUNITS
 70
     0
  9
$AUPREC
 70
     2
  9
$MENU
  1
.
  9
$ELEVATION
 40
0.0
  9
$PELEVATION
 40
0.0
  9
$THICKNESS
 40
0.0
  9
$LIMCHECK
 70
     0
  9
$CHAMFERA
 40
0.0
  9
$CHAMFERB
 40
0.0
  9
$CHAMFERC
 40
0.0
  9
$CHAMFERD
 40
0.0
  9
$SKPOLY
 70
     0
  9
$TDCREATE
 40
2459741.591034491
  9
$TDUCREATE
 40
2459741.466034491
  9
$TDUPDATE
 40
2459741.591036643
  9
$TDUUPDATE
 40
2459741.466036643
  9
$TDINDWG
 40
0.0000000116
  9
$TDUSRTIMER
 40
0.0000000116
  9
$USRTIMER
 70
     1
  9
$ANGBASE
 50
0.0
  9
$ANGDIR
 70
     0
  9
$PDMODE
 70
     0
  9
$PDSIZE
 40
-1.0
  9
$PLINEWID
 40
0.0
  9
$SPLFRAME
 70
     0
  9
$SPLINETYPE
 70
     6
  9
$SPLINESEGS
 70
     8
  9
$HANDSEED
  5
18C
  9
$SURFTAB1
 70
     6
  9
$SURFTAB2
 70
     6
  9
$SURFTYPE
 70
     6
  9
$SURFU
 70
     6
  9
$SURFV
 70
     6
  9
$UCSBASE
  2

  9
$UCSNAME
  2

  9
$UCSORG
 10
0.0
 20
0.0
 30
0.0
  9
$UCSXDIR
 10
1.0
 20
0.0
 30
0.0
  9
$UCSYDIR
 10
0.0
 20
1.0
 30
0.0
  9
$UCSORTHOREF
  2

  9
$UCSORTHOVIEW
 70
     0
  9
$UCSORGTOP
 10
0.0
 20
0.0
 30
0.0
  9
$UCSORGBOTTOM
 10
0.0
 20
0.0
 30
0.0
  9
$UCSORGLEFT
 10
0.0
 20
0.0
 30
0.0
  9
$UCSORGRIGHT
 10
0.0
 20
0.0
 30
0.0
  9
$UCSORGFRONT
 10
0.0
 20
0.0
 30
0.0
  9
$UCSORGBACK
 10
0.0
 20
0.0
 30
0.0
  9
$PUCSBASE
  2

  9
$PUCSNAME
  2

  9
$PUCSORG
 10
0.0
 20
0.0
 30
0.0
  9
$PUCSXDIR
 10
1.0
 20
0.0
 30
0.0
  9
$PUCSYDIR
 10
0.0
 20
1.0
 30
0.0
  9
$PUCSORTHOREF
  2

  9
$PUCSORTHOVIEW
 70
     0
  9
$PUCSORGTOP
 10
0.0
 20
0.0
 30
0.0
  9
$PUCSORGBOTTOM
 10
0.0
 20
0.0
 30
0.0
  9
$PUCSORGLEFT
 10
0.0
 20
0.0
 30
0.0
  9
$PUCSORGRIGHT
 10
0.0
 20
0.0
 30
0.0
  9
$PUCSORGFRONT
 10
0.0
 20
0.0
 30
0.0
  9
$PUCSORGBACK
 10
0.0
 20
0.0
 30
0.0
  9
$USERI1
 70
     0
  9
$USERI2
 70
     0
  9
$USERI3
 70
     0
  9
$USERI4
 70
     0
  9
$USERI5
 70
     0
  9
$USERR1
 40
0.0
  9
$USERR2
 40
0.0
  9
$USERR3
 40
0.0
  9
$USERR4
 40
0.0
  9
$USERR5
 40
0.0
  9
$WORLDVIEW
 70
     1
  9
$SHADEDGE
 70
     3
  9
$SHADEDIF
 70
    70
  9
$TILEMODE
 70
     1
  9
$MAXACTVP
 70
    64
  9
$PINSBASE
 10
0.0
 20
0.0
 30
0.0
  9
$PLIMCHECK
 70
     0
  9
$PEXTMIN
 10
1.0000000000E+20
 20
1.0000000000E+20
 30
1.0000000000E+20
  9
$PEXTMAX
 10
-1.0000000000E+20
 20
-1.0000000000E+20
 30
-1.0000000000E+20
  9
$PLIMMIN
 10
0.0
 20
0.0
  9
$PLIMMAX
 10
420.0
 20
297.0
  9
$UNITMODE
 70
     0
  9
$VISRETAIN
 70
     1
  9
$PLINEGEN
 70
     0
  9
$PSLTSCALE
 70
     1
  9
$TREEDEPTH
 70
  3020
  9
$CMLSTYLE
  2
Standard
  9
$CMLJUST
 70
     0
  9
$CMLSCALE
 40
20.0
  9
$PROXYGRAPHICS
 70
     1
  9
$MEASUREMENT
 70
     1
  9
$CELWEIGHT
370
    -1
  9
$ENDCAPS
280
     0
  9
$JOINSTYLE
280
     0
  9
$LWDISPLAY
290
     1
  9
$INSUNITS
 70
     4
  9
$HYPERLINKBASE
  1

  9
$STYLESHEET
  1

  9
$XEDIT
290
     1
  9
$CEPSNTYPE
380
     0
  9
$PSTYLEMODE
290
     1
  9
$FINGERPRINTGUID
  2
{6ca4d00f-ca6f-4506-a533-e22a34b27c19}
  9
$VERSIONGUID
  2
{FAEB1C32-E019-11D5-929B-00C0DF256EC4}
  9
$EXTNAMES
290
     1
  9
$PSVPSCALE
 40
0.0
  9
$OLESTARTUP
290
     0
  0
ENDSEC
  0
SECTION
  2
CLASSES
  0
CLASS
  1
ACDBDICTIONARYWDFLT
  2
AcDbDictionaryWithDefault
  3
ObjectDBX Classes
 90
        0
280
     0
281
     0
  0
CLASS
  1
VISUALSTYLE
  2
AcDbVisualStyle
  3
ObjectDBX Classes
 90
     4095
280
     0
281
     0
  0
CLASS
  1
MATERIAL
  2
AcDbMaterial
  3
ObjectDBX Classes
 90
     1153
280
     0
281
     0
  0
CLASS
  1
SCALE
  2
AcDbScale
  3
ObjectDBX Classes
 90
     1153
280
     0
281
     0
  0
CLASS
  1
TABLESTYLE
  2
AcDbTableStyle
  3
ObjectDBX Classes
 90
     4095
280
     0
281
     0
  0
CLASS
  1
MLEADERSTYLE
  2
AcDbMLeaderStyle
  3
ACDB_MLEADERSTYLE_CLASS
 90
     4095
280
     0
281
     0
  0
CLASS
  1
SUN
  2
AcDbSun
  3
SCENEOE
 90
     1153
280
     0
281
     0
  0
CLASS
  1
ACDBPLACEHOLDER
  2
AcDbPlaceHolder
  3
ObjectDBX Classes
 90
        0
280
     0
281
     0
  0
CLASS
  1
LAYOUT
  2
AcDbLayout
  3
ObjectDBX Classes
 90
        0
280
     0
281
     0
  0
ENDSEC
  0
SECTION
  2
TABLES
  0
TABLE
  2
VPORT
  5
8
330
0
100
AcDbSymbolTable
 70
     1
  0
VPORT
  5
29
330
8
100
AcDbSymbolTableRecord
100
AcDbViewportTableRecord
  2
*Active
 70
     0
 10
0.0
 20
0.0
 11
1.0
 21
1.0
 12
139.7
 22
107.95
 13
0.0
 23
0.0
 14
10.0
 24
10.0
 15
10.0
 25
10.0
 16
0.0
 26
0.0
 36
1.0
 17
0.0
 27
0.0
 37
0.0
 40
215.9
 41
1.2941176471
 42
50.0
 43
0.0
 44
0.0
 50
0.0
 51
0.0
 71
     0
 72
  2000
 73
     1
 74
     3
 75
     0
 76
     0
 77
     0
 78
     0
281
     0
 65
     1
110
0.0
120
0.0
130
0.0
111
1.0
121
0.0
131
0.0
112
0.0
122
1.0
132
0.0
 79
     0
146
0.0
  0
ENDTAB
  0
TABLE
  2
LTYPE
  5
5
330
0
100
AcDbSymbolTable
 70
     6
  0
LTYPE
  5
14
330
5
100
AcDbSymbolTableRecord
100
AcDbLinetypeTableRecord
  2
ByBlock
 70
     0
  3

 72
    65
 73
     0
 40
0.0
  0
LTYPE
  5
15
330
5
100
AcDbSymbolTableRecord
100
AcDbLinetypeTableRecord
  2
ByLayer
 70
     0
  3

 72
    65
 73
     0
 40
0.0
  0
LTYPE
  5
16
330
5
100
AcDbSymbolTableRecord
100
AcDbLinetypeTableRecord
  2
Continuous
 70
     0
  3
Solid line
 72
    65
 73
     0
 40
0.0
  0
LTYPE
  5
6E
330
5
100
AcDbSymbolTableRecord
100
AcDbLinetypeTableRecord
  2
HIDDEN
 70
     0
  3
Hidden __ __ __ __ __ __ __ __ __ __ __ __ __ __
 72
    65
 73
     2
 40
1.905
 49
1.27
 74
     0
 49
-0.635
 74
     0
  0
LTYPE
  5
6F
330
5
100
AcDbSymbolTableRecord
100
AcDbLinetypeTableRecord
  2
PHANTOM
 70
     0
  3
Phantom ______  __  __  ______  __  __  ______
 72
    65
 73
     6
 40
12.7
 49
6.35
 74
     0
 49
-1.27
 74
     0
 49
1.27
 74
     0
 49
-1.27
 74
     0
 49
1.27
 74
     0
 49
-1.27
 74
     0
  0
LTYPE
  5
70
330
5
100
AcDbSymbolTableRecord
100
AcDbLinetypeTableRecord
  2
CENTER
 70
     0
  3
Center ____ _ ____ _ ____ _ ____ _ ____ _ ____
 72
    65
 73
     4
 40
10.16
 49
6.35
 74
     0
 49
-1.27
 74
     0
 49
1.27
 74
     0
 49
-1.27
 74
     0
  0
LTYPE
  5
71
330
5
100
AcDbSymbolTableRecord
100
AcDbLinetypeTableRecord
  2
CENTERX2
 70
     0
  3
Center (2x) ________  __  ________  __  _____
 72
    65
 73
     4
 40
20.32
 49
12.7
 74
     0
 49
-2.54
 74
     0
 49
2.54
 74
     0
 49
-2.54
 74
     0
  0
LTYPE
  5
72
330
5
100
AcDbSymbolTableRecord
100
AcDbLinetypeTableRecord
  2
DOT2
 70
     0
  3
Dot (.5x) ........................................
 72
    65
 73
     2
 40
0.635
 49
0.0
 74
     0
 49
-0.635
 74
     0
  0
ENDTAB
  0
TABLE
  2
LAYER
  5
2
330
0
100
AcDbSymbolTable
 70
    17
  0
LAYER
  5
10
330
2
100
AcDbSymbolTableRecord
100
AcDbLayerTableRecord
  2
0
 70
     0
 62
     7
  6
Continuous
370
    -3
390
F
  0
LAYER
  5
73
330
2
100
AcDbSymbolTableRecord
100
AcDbLayerTableRecord
  2
FORMAT
 70
     0
 62
     7
  6
Continuous
370
    -3
390
F
  0
LAYER
  5
74
330
2
100
AcDbSymbolTableRecord
100
AcDbLayerTableRecord
  2
YARDIMCI_GEOMETRI
 70
     0
 62
    -6
  6
Continuous
290
     0
370
    -3
390
F
  0
LAYER
  5
75
330
2
100
AcDbSymbolTableRecord
100
AcDbLayerTableRecord
  2
SAYFA_CERCEVESI
 70
     0
 62
     7
  6
Continuous
370
    25
390
F
  0
LAYER
  5
76
330
2
100
AcDbSymbolTableRecord
100
AcDbLayerTableRecord
  2
ANTET
 70
     0
 62
     7
  6
Continuous
370
    -3
390
F
  0
LAYER
  5
77
330
2
100
AcDbSymbolTableRecord
100
AcDbLayerTableRecord
  2
OLCU
 70
     0
 62
   150
  6
Continuous
370
    -3
390
F
  0
LAYER
  5
78
330
2
100
AcDbSymbolTableRecord
100
AcDbLayerTableRecord
  2
METIN
 70
     0
 62
    96
  6
Continuous
370
    -3
390
F
  0
LAYER
  5
79
330
2
100
AcDbSymbolTableRecord
100
AcDbLayerTableRecord
  2
BALON
 70
     0
 62
     5
  6
Continuous
370
    -3
390
F
  0
LAYER
  5
7A
330
2
100
AcDbSymbolTableRecord
100
AcDbLayerTableRecord
  2
VURGU
 70
     0
 62
     7
  6
Continuous
370
    -3
390
F
  0
LAYER
  5
7B
330
2
100
AcDbSymbolTableRecord
100
AcDbLayerTableRecord
  2
SILIK
 70
     0
 62
     7
  6
Continuous
370
    -3
390
F
  0
LAYER
  5
7C
330
2
100
AcDbSymbolTableRecord
100
AcDbLayerTableRecord
  2
MODEL
 70
     0
 62
     7
  6
Continuous
370
    -3
390
F
  0
LAYER
  5
7D
330
2
100
AcDbSymbolTableRecord
100
AcDbLayerTableRecord
  2
DETAYLANDıRMA
 70
     0
 62
   190
  6
Continuous
370
    -3
390
F
  0
LAYER
  5
7E
330
2
100
AcDbSymbolTableRecord
100
AcDbLayerTableRecord
  2
TOLERANS
 70
     0
 62
   230
  6
Continuous
370
    -3
390
F
  0
LAYER
  5
7F
330
2
100
AcDbSymbolTableRecord
100
AcDbLayerTableRecord
  2
MERKEZ_CIZGILERI
 70
     0
 62
    30
  6
Continuous
370
    -3
390
F
  0
LAYER
  5
80
330
2
100
AcDbSymbolTableRecord
100
AcDbLayerTableRecord
  2
KESIT-DETAY_CIZGILERI
 70
     0
 62
     7
  6
Continuous
370
    -3
390
F
  0
LAYER
  5
81
330
2
100
AcDbSymbolTableRecord
100
AcDbLayerTableRecord
  2
\U+041E\U+0421\U+0415\U+0412\U+042B\U+0415
 70
     0
 62
     7
  6
Continuous
370
    -3
390
F
  0
LAYER
  5
82
330
2
100
AcDbSymbolTableRecord
100
AcDbLayerTableRecord
  2
\U+0412\U+041E\U+0414\U+042F\U+041D\U+042B\U+0415_\U+0417\U+041D\U+0410\U+041A\U+0418
 70
     0
 62
    11
  6
Continuous
370
    -3
390
F
  0
ENDTAB
  0
TABLE
  2
STYLE
  5
3
330
0
100
AcDbSymbolTable
 70
     1
  0
STYLE
  5
11
330
3
100
AcDbSymbolTableRecord
100
AcDbTextStyleTableRecord
  2
Standard
 70
     0
 40
0.0
 41
1.0
 50
0.0
 71
     0
 42
3.5
  3
txt
  4

  0
ENDTAB
  0
TABLE
  2
VIEW
  5
6
330
0
100
AcDbSymbolTable
 70
     0
  0
ENDTAB
  0
TABLE
  2
UCS
  5
7
330
0
100
AcDbSymbolTable
 70
     0
  0
ENDTAB
  0
TABLE
  2
APPID
  5
9
330
0
100
AcDbSymbolTable
 70
     1
  0
APPID
  5
12
330
9
100
AcDbSymbolTableRecord
100
AcDbRegAppTableRecord
  2
ACAD
 70
     0
  0
ENDTAB
  0
TABLE
  2
DIMSTYLE
  5
A
330
0
100
AcDbSymbolTable
 70
     1
100
AcDbDimStyleTable
  0
DIMSTYLE
105
27
330
A
100
AcDbSymbolTableRecord
100
AcDbDimStyleTableRecord
  2
ISO-25
 70
     0
 41
2.5
 42
0.625
 43
3.75
 44
1.25
 73
     0
 74
     0
 77
     1
 78
     8
140
2.5
141
2.5
143
0.0393700787
147
0.625
171
     3
172
     1
178
     0
271
     2
272
     2
274
     3
278
    44
283
     0
284
     8
340
11
  0
ENDTAB
  0
TABLE
  2
BLOCK_RECORD
  5
1
330
0
100
AcDbSymbolTable
 70
    10
  0
BLOCK_RECORD
  5
1F
330
1
100
AcDbSymbolTableRecord
100
AcDbBlockTableRecord
  2
*Model_Space
340
22
  0
BLOCK_RECORD
  5
1B
330
1
100
AcDbSymbolTableRecord
100
AcDbBlockTableRecord
  2
*Paper_Space
340
1E
  0
BLOCK_RECORD
  5
23
330
1
100
AcDbSymbolTableRecord
100
AcDbBlockTableRecord
  2
*Paper_Space0
340
26
  0
BLOCK_RECORD
  5
9F
330
1
100
AcDbSymbolTableRecord
100
AcDbBlockTableRecord
  2
SW_CENTERMARKSYMBOL_0
340
0
102
{BLKREFS
331
AA
102
}
  0
BLOCK_RECORD
  5
AB
330
1
100
AcDbSymbolTableRecord
100
AcDbBlockTableRecord
  2
SW_CENTERMARKSYMBOL_1
340
0
102
{BLKREFS
331
B6
102
}
  0
BLOCK_RECORD
  5
B7
330
1
100
AcDbSymbolTableRecord
100
AcDbBlockTableRecord
  2
SW_CENTERMARKSYMBOL_2
340
0
102
{BLKREFS
331
C2
102
}
  0
BLOCK_RECORD
  5
C3
330
1
100
AcDbSymbolTableRecord
100
AcDbBlockTableRecord
  2
SW_CENTERMARKSYMBOL_3
340
0
102
{BLKREFS
331
CE
102
}
  0
BLOCK_RECORD
  5
CF
330
1
100
AcDbSymbolTableRecord
100
AcDbBlockTableRecord
  2
SW_CENTERMARKSYMBOL_4
340
0
102
{BLKREFS
331
DA
102
}
  0
BLOCK_RECORD
  5
DB
330
1
100
AcDbSymbolTableRecord
100
AcDbBlockTableRecord
  2
SW_CENTERMARKSYMBOL_5
340
0
102
{BLKREFS
331
E6
102
}
  0
BLOCK_RECORD
  5
E7
330
1
100
AcDbSymbolTableRecord
100
AcDbBlockTableRecord
  2
SW_CENTERMARKSYMBOL_6
340
0
102
{BLKREFS
331
F2
102
}
  0
BLOCK_RECORD
  5
F3
330
1
100
AcDbSymbolTableRecord
100
AcDbBlockTableRecord
  2
SW_CENTERMARKSYMBOL_7
340
0
102
{BLKREFS
331
FE
102
}
  0
BLOCK_RECORD
  5
FF
330
1
100
AcDbSymbolTableRecord
100
AcDbBlockTableRecord
  2
SW_CENTERMARKSYMBOL_8
340
0
102
{BLKREFS
331
10A
102
}
  0
ENDTAB
  0
ENDSEC
  0
SECTION
  2
BLOCKS
  0
BLOCK
  5
20
330
1F
100
AcDbEntity
  8
0
100
AcDbBlockBegin
  2
*Model_Space
 70
     0
 10
0.0
 20
0.0
 30
0.0
  3
*Model_Space
  1

  0
ENDBLK
  5
21
330
1F
100
AcDbEntity
  8
0
100
AcDbBlockEnd
  0
BLOCK
  5
1C
330
1B
100
AcDbEntity
 67
     1
  8
0
100
AcDbBlockBegin
  2
*Paper_Space
 70
     0
 10
0.0
 20
0.0
 30
0.0
  3
*Paper_Space
  1

  0
ENDBLK
  5
1D
330
1B
100
AcDbEntity
 67
     1
  8
0
100
AcDbBlockEnd
  0
BLOCK
  5
24
330
23
100
AcDbEntity
  8
0
100
AcDbBlockBegin
  2
*Paper_Space0
 70
     0
 10
0.0
 20
0.0
 30
0.0
  3
*Paper_Space0
  1

  0
ENDBLK
  5
25
330
23
100
AcDbEntity
  8
0
100
AcDbBlockEnd
  0
BLOCK
  5
A0
330
9F
100
AcDbEntity
  8
0
100
AcDbBlockBegin
  2
SW_CENTERMARKSYMBOL_0
 70
     0
 10
0.0
 20
0.0
 30
0.0
  3
SW_CENTERMARKSYMBOL_0
  1

  0
LINE
  5
A2
330
9F
100
AcDbEntity
  8
FORMAT
 62
     0
100
AcDbLine
 10
0.0
 20
0.0
 30
0.0
 11
0.0
 21
2.5
 31
0.0
  0
LINE
  5
A3
330
9F
100
AcDbEntity
  8
FORMAT
 62
     0
100
AcDbLine
 10
0.0
 20
0.0
 30
0.0
 11
-2.5
 21
0.0
 31
0.0
  0
LINE
  5
A4
330
9F
100
AcDbEntity
  8
FORMAT
 62
     0
100
AcDbLine
 10
0.0
 20
0.0
 30
0.0
 11
0.0
 21
-2.5
 31
0.0
  0
LINE
  5
A5
330
9F
100
AcDbEntity
  8
FORMAT
 62
     0
100
AcDbLine
 10
0.0
 20
0.0
 30
0.0
 11
2.5
 21
0.0
 31
0.0
  0
LINE
  5
A6
330
9F
100
AcDbEntity
  8
FORMAT
 62
     0
100
AcDbLine
 10
0.0
 20
5.0
 30
0.0
 11
0.0
 21
200.0
 31
0.0
  0
LINE
  5
A7
330
9F
100
AcDbEntity
  8
FORMAT
 62
     0
100
AcDbLine
 10
-5.0
 20
0.0
 30
0.0
 11
-200.0
 21
0.0
 31
0.0
  0
LINE
  5
A8
330
9F
100
AcDbEntity
  8
FORMAT
 62
     0
100
AcDbLine
 10
0.0
 20
-5.0
 30
0.0
 11
0.0
 21
-200.0
 31
0.0
  0
LINE
  5
A9
330
9F
100
AcDbEntity
  8
FORMAT
 62
     0
100
AcDbLine
 10
5.0
 20
0.0
 30
0.0
 11
200.0
 21
0.0
 31
0.0
  0
ENDBLK
  5
A1
330
9F
100
AcDbEntity
  8
0
100
AcDbBlockEnd
  0
BLOCK
  5
AC
330
AB
100
AcDbEntity
  8
0
100
AcDbBlockBegin
  2
SW_CENTERMARKSYMBOL_1
 70
     0
 10
0.0
 20
0.0
 30
0.0
  3
SW_CENTERMARKSYMBOL_1
  1

  0
LINE
  5
AE
330
AB
100
AcDbEntity
  8
FORMAT
 62
     0
100
AcDbLine
 10
0.0
 20
0.0
 30
0.0
 11
0.0
 21
2.5
 31
0.0
  0
LINE
  5
AF
330
AB
100
AcDbEntity
  8
FORMAT
 62
     0
100
AcDbLine
 10
0.0
 20
0.0
 30
0.0
 11
-2.5
 21
0.0
 31
0.0
  0
LINE
  5
B0
330
AB
100
AcDbEntity
  8
FORMAT
 62
     0
100
AcDbLine
 10
0.0
 20
0.0
 30
0.0
 11
0.0
 21
-2.5
 31
0.0
  0
LINE
  5
B1
330
AB
100
AcDbEntity
  8
FORMAT
 62
     0
100
AcDbLine
 10
0.0
 20
0.0
 30
0.0
 11
2.5
 21
0.0
 31
0.0
  0
LINE
  5
B2
330
AB
100
AcDbEntity
  8
FORMAT
 62
     0
100
AcDbLine
 10
0.0
 20
5.0
 30
0.0
 11
0.0
 21
13.5
 31
0.0
  0
LINE
  5
B3
330
AB
100
AcDbEntity
  8
FORMAT
 62
     0
100
AcDbLine
 10
-5.0
 20
0.0
 30
0.0
 11
-13.5
 21
0.0
 31
0.0
  0
LINE
  5
B4
330
AB
100
AcDbEntity
  8
FORMAT
 62
     0
100
AcDbLine
 10
0.0
 20
-5.0
 30
0.0
 11
0.0
 21
-13.5
 31
0.0
  0
LINE
  5
B5
330
AB
100
AcDbEntity
  8
FORMAT
 62
     0
100
AcDbLine
 10
5.0
 20
0.0
 30
0.0
 11
13.5
 21
0.0
 31
0.0
  0
ENDBLK
  5
AD
330
AB
100
AcDbEntity
  8
0
100
AcDbBlockEnd
  0
BLOCK
  5
B8
330
B7
100
AcDbEntity
  8
0
100
AcDbBlockBegin
  2
SW_CENTERMARKSYMBOL_2
 70
     0
 10
0.0
 20
0.0
 30
0.0
  3
SW_CENTERMARKSYMBOL_2
  1

  0
LINE
  5
BA
330
B7
100
AcDbEntity
  8
FORMAT
 62
     0
100
AcDbLine
 10
0.0
 20
0.0
 30
0.0
 11
0.0
 21
2.5
 31
0.0
  0
LINE
  5
BB
330
B7
100
AcDbEntity
  8
FORMAT
 62
     0
100
AcDbLine
 10
0.0
 20
0.0
 30
0.0
 11
-2.5
 21
0.0
 31
0.0
  0
LINE
  5
BC
330
B7
100
AcDbEntity
  8
FORMAT
 62
     0
100
AcDbLine
 10
0.0
 20
0.0
 30
0.0
 11
0.0
 21
-2.5
 31
0.0
  0
LINE
  5
BD
330
B7
100
AcDbEntity
  8
FORMAT
 62
     0
100
AcDbLine
 10
0.0
 20
0.0
 30
0.0
 11
2.5
 21
0.0
 31
0.0
  0
LINE
  5
BE
330
B7
100
AcDbEntity
  8
FORMAT
 62
     0
100
AcDbLine
 10
0.0
 20
5.0
 30
0.0
 11
0.0
 21
13.5
 31
0.0
  0
LINE
  5
BF
330
B7
100
AcDbEntity
  8
FORMAT
 62
     0
100
AcDbLine
 10
-5.0
 20
0.0
 30
0.0
 11
-13.5
 21
0.0
 31
0.0
  0
LINE
  5
C0
330
B7
100
AcDbEntity
  8
FORMAT
 62
     0
100
AcDbLine
 10
0.0
 20
-5.0
 30
0.0
 11
0.0
 21
-13.5
 31
0.0
  0
LINE
  5
C1
330
B7
100
AcDbEntity
  8
FORMAT
 62
     0
100
AcDbLine
 10
5.0
 20
0.0
 30
0.0
 11
13.5
 21
0.0
 31
0.0
  0
ENDBLK
  5
B9
330
B7
100
AcDbEntity
  8
0
100
AcDbBlockEnd
  0
BLOCK
  5
C4
330
C3
100
AcDbEntity
  8
0
100
AcDbBlockBegin
  2
SW_CENTERMARKSYMBOL_3
 70
     0
 10
0.0
 20
0.0
 30
0.0
  3
SW_CENTERMARKSYMBOL_3
  1

  0
LINE
  5
C6
330
C3
100
AcDbEntity
  8
FORMAT
 62
     0
100
AcDbLine
 10
0.0
 20
0.0
 30
0.0
 11
0.0
 21
2.5
 31
0.0
  0
LINE
  5
C7
330
C3
100
AcDbEntity
  8
FORMAT
 62
     0
100
AcDbLine
 10
0.0
 20
0.0
 30
0.0
 11
-2.5
 21
0.0
 31
0.0
  0
LINE
  5
C8
330
C3
100
AcDbEntity
  8
FORMAT
 62
     0
100
AcDbLine
 10
0.0
 20
0.0
 30
0.0
 11
0.0
 21
-2.5
 31
0.0
  0
LINE
  5
C9
330
C3
100
AcDbEntity
  8
FORMAT
 62
     0
100
AcDbLine
 10
0.0
 20
0.0
 30
0.0
 11
2.5
 21
0.0
 31
0.0
  0
LINE
  5
CA
330
C3
100
AcDbEntity
  8
FORMAT
 62
     0
100
AcDbLine
 10
0.0
 20
5.0
 30
0.0
 11
0.0
 21
13.5
 31
0.0
  0
LINE
  5
CB
330
C3
100
AcDbEntity
  8
FORMAT
 62
     0
100
AcDbLine
 10
-5.0
 20
0.0
 30
0.0
 11
-13.5
 21
0.0
 31
0.0
  0
LINE
  5
CC
330
C3
100
AcDbEntity
  8
FORMAT
 62
     0
100
AcDbLine
 10
0.0
 20
-5.0
 30
0.0
 11
0.0
 21
-13.5
 31
0.0
  0
LINE
  5
CD
330
C3
100
AcDbEntity
  8
FORMAT
 62
     0
100
AcDbLine
 10
5.0
 20
0.0
 30
0.0
 11
13.5
 21
0.0
 31
0.0
  0
ENDBLK
  5
C5
330
C3
100
AcDbEntity
  8
0
100
AcDbBlockEnd
  0
BLOCK
  5
D0
330
CF
100
AcDbEntity
  8
0
100
AcDbBlockBegin
  2
SW_CENTERMARKSYMBOL_4
 70
     0
 10
0.0
 20
0.0
 30
0.0
  3
SW_CENTERMARKSYMBOL_4
  1

  0
LINE
  5
D2
330
CF
100
AcDbEntity
  8
FORMAT
 62
     0
100
AcDbLine
 10
0.0
 20
0.0
 30
0.0
 11
0.0
 21
2.5
 31
0.0
  0
LINE
  5
D3
330
CF
100
AcDbEntity
  8
FORMAT
 62
     0
100
AcDbLine
 10
0.0
 20
0.0
 30
0.0
 11
-2.5
 21
0.0
 31
0.0
  0
LINE
  5
D4
330
CF
100
AcDbEntity
  8
FORMAT
 62
     0
100
AcDbLine
 10
0.0
 20
0.0
 30
0.0
 11
0.0
 21
-2.5
 31
0.0
  0
LINE
  5
D5
330
CF
100
AcDbEntity
  8
FORMAT
 62
     0
100
AcDbLine
 10
0.0
 20
0.0
 30
0.0
 11
2.5
 21
0.0
 31
0.0
  0
LINE
  5
D6
330
CF
100
AcDbEntity
  8
FORMAT
 62
     0
100
AcDbLine
 10
0.0
 20
5.0
 30
0.0
 11
0.0
 21
13.5
 31
0.0
  0
LINE
  5
D7
330
CF
100
AcDbEntity
  8
FORMAT
 62
     0
100
AcDbLine
 10
-5.0
 20
0.0
 30
0.0
 11
-13.5
 21
0.0
 31
0.0
  0
LINE
  5
D8
330
CF
100
AcDbEntity
  8
FORMAT
 62
     0
100
AcDbLine
 10
0.0
 20
-5.0
 30
0.0
 11
0.0
 21
-13.5
 31
0.0
  0
LINE
  5
D9
330
CF
100
AcDbEntity
  8
FORMAT
 62
     0
100
AcDbLine
 10
5.0
 20
0.0
 30
0.0
 11
13.5
 21
0.0
 31
0.0
  0
ENDBLK
  5
D1
330
CF
100
AcDbEntity
  8
0
100
AcDbBlockEnd
  0
BLOCK
  5
DC
330
DB
100
AcDbEntity
  8
0
100
AcDbBlockBegin
  2
SW_CENTERMARKSYMBOL_5
 70
     0
 10
0.0
 20
0.0
 30
0.0
  3
SW_CENTERMARKSYMBOL_5
  1

  0
LINE
  5
DE
330
DB
100
AcDbEntity
  8
FORMAT
 62
     0
100
AcDbLine
 10
0.0
 20
0.0
 30
0.0
 11
0.0
 21
2.5
 31
0.0
  0
LINE
  5
DF
330
DB
100
AcDbEntity
  8
FORMAT
 62
     0
100
AcDbLine
 10
0.0
 20
0.0
 30
0.0
 11
-2.5
 21
0.0
 31
0.0
  0
LINE
  5
E0
330
DB
100
AcDbEntity
  8
FORMAT
 62
     0
100
AcDbLine
 10
0.0
 20
0.0
 30
0.0
 11
0.0
 21
-2.5
 31
0.0
  0
LINE
  5
E1
330
DB
100
AcDbEntity
  8
FORMAT
 62
     0
100
AcDbLine
 10
0.0
 20
0.0
 30
0.0
 11
2.5
 21
0.0
 31
0.0
  0
LINE
  5
E2
330
DB
100
AcDbEntity
  8
FORMAT
 62
     0
100
AcDbLine
 10
0.0
 20
5.0
 30
0.0
 11
0.0
 21
14.5
 31
0.0
  0
LINE
  5
E3
330
DB
100
AcDbEntity
  8
FORMAT
 62
     0
100
AcDbLine
 10
-5.0
 20
0.0
 30
0.0
 11
-14.5
 21
0.0
 31
0.0
  0
LINE
  5
E4
330
DB
100
AcDbEntity
  8
FORMAT
 62
     0
100
AcDbLine
 10
0.0
 20
-5.0
 30
0.0
 11
0.0
 21
-14.5
 31
0.0
  0
LINE
  5
E5
330
DB
100
AcDbEntity
  8
FORMAT
 62
     0
100
AcDbLine
 10
5.0
 20
0.0
 30
0.0
 11
14.5
 21
0.0
 31
0.0
  0
ENDBLK
  5
DD
330
DB
100
AcDbEntity
  8
0
100
AcDbBlockEnd
  0
BLOCK
  5
E8
330
E7
100
AcDbEntity
  8
0
100
AcDbBlockBegin
  2
SW_CENTERMARKSYMBOL_6
 70
     0
 10
0.0
 20
0.0
 30
0.0
  3
SW_CENTERMARKSYMBOL_6
  1

  0
LINE
  5
EA
330
E7
100
AcDbEntity
  8
FORMAT
 62
     0
100
AcDbLine
 10
0.0
 20
0.0
 30
0.0
 11
0.0
 21
2.5
 31
0.0
  0
LINE
  5
EB
330
E7
100
AcDbEntity
  8
FORMAT
 62
     0
100
AcDbLine
 10
0.0
 20
0.0
 30
0.0
 11
-2.5
 21
0.0
 31
0.0
  0
LINE
  5
EC
330
E7
100
AcDbEntity
  8
FORMAT
 62
     0
100
AcDbLine
 10
0.0
 20
0.0
 30
0.0
 11
0.0
 21
-2.5
 31
0.0
  0
LINE
  5
ED
330
E7
100
AcDbEntity
  8
FORMAT
 62
     0
100
AcDbLine
 10
0.0
 20
0.0
 30
0.0
 11
2.5
 21
0.0
 31
0.0
  0
LINE
  5
EE
330
E7
100
AcDbEntity
  8
FORMAT
 62
     0
100
AcDbLine
 10
0.0
 20
5.0
 30
0.0
 11
0.0
 21
14.5
 31
0.0
  0
LINE
  5
EF
330
E7
100
AcDbEntity
  8
FORMAT
 62
     0
100
AcDbLine
 10
-5.0
 20
0.0
 30
0.0
 11
-14.5
 21
0.0
 31
0.0
  0
LINE
  5
F0
330
E7
100
AcDbEntity
  8
FORMAT
 62
     0
100
AcDbLine
 10
0.0
 20
-5.0
 30
0.0
 11
0.0
 21
-14.5
 31
0.0
  0
LINE
  5
F1
330
E7
100
AcDbEntity
  8
FORMAT
 62
     0
100
AcDbLine
 10
5.0
 20
0.0
 30
0.0
 11
14.5
 21
0.0
 31
0.0
  0
ENDBLK
  5
E9
330
E7
100
AcDbEntity
  8
0
100
AcDbBlockEnd
  0
BLOCK
  5
F4
330
F3
100
AcDbEntity
  8
0
100
AcDbBlockBegin
  2
SW_CENTERMARKSYMBOL_7
 70
     0
 10
0.0
 20
0.0
 30
0.0
  3
SW_CENTERMARKSYMBOL_7
  1

  0
LINE
  5
F6
330
F3
100
AcDbEntity
  8
FORMAT
 62
     0
100
AcDbLine
 10
0.0
 20
0.0
 30
0.0
 11
0.0
 21
2.5
 31
0.0
  0
LINE
  5
F7
330
F3
100
AcDbEntity
  8
FORMAT
 62
     0
100
AcDbLine
 10
0.0
 20
0.0
 30
0.0
 11
-2.5
 21
0.0
 31
0.0
  0
LINE
  5
F8
330
F3
100
AcDbEntity
  8
FORMAT
 62
     0
100
AcDbLine
 10
0.0
 20
0.0
 30
0.0
 11
0.0
 21
-2.5
 31
0.0
  0
LINE
  5
F9
330
F3
100
AcDbEntity
  8
FORMAT
 62
     0
100
AcDbLine
 10
0.0
 20
0.0
 30
0.0
 11
2.5
 21
0.0
 31
0.0
  0
LINE
  5
FA
330
F3
100
AcDbEntity
  8
FORMAT
 62
     0
100
AcDbLine
 10
0.0
 20
5.0
 30
0.0
 11
0.0
 21
14.5
 31
0.0
  0
LINE
  5
FB
330
F3
100
AcDbEntity
  8
FORMAT
 62
     0
100
AcDbLine
 10
-5.0
 20
0.0
 30
0.0
 11
-14.5
 21
0.0
 31
0.0
  0
LINE
  5
FC
330
F3
100
AcDbEntity
  8
FORMAT
 62
     0
100
AcDbLine
 10
0.0
 20
-5.0
 30
0.0
 11
0.0
 21
-14.5
 31
0.0
  0
LINE
  5
FD
330
F3
100
AcDbEntity
  8
FORMAT
 62
     0
100
AcDbLine
 10
5.0
 20
0.0
 30
0.0
 11
14.5
 21
0.0
 31
0.0
  0
ENDBLK
  5
F5
330
F3
100
AcDbEntity
  8
0
100
AcDbBlockEnd
  0
BLOCK
  5
100
330
FF
100
AcDbEntity
  8
0
100
AcDbBlockBegin
  2
SW_CENTERMARKSYMBOL_8
 70
     0
 10
0.0
 20
0.0
 30
0.0
  3
SW_CENTERMARKSYMBOL_8
  1

  0
LINE
  5
102
330
FF
100
AcDbEntity
  8
FORMAT
 62
     0
100
AcDbLine
 10
0.0
 20
0.0
 30
0.0
 11
0.0
 21
2.5
 31
0.0
  0
LINE
  5
103
330
FF
100
AcDbEntity
  8
FORMAT
 62
     0
100
AcDbLine
 10
0.0
 20
0.0
 30
0.0
 11
-2.5
 21
0.0
 31
0.0
  0
LINE
  5
104
330
FF
100
AcDbEntity
  8
FORMAT
 62
     0
100
AcDbLine
 10
0.0
 20
0.0
 30
0.0
 11
0.0
 21
-2.5
 31
0.0
  0
LINE
  5
105
330
FF
100
AcDbEntity
  8
FORMAT
 62
     0
100
AcDbLine
 10
0.0
 20
0.0
 30
0.0
 11
2.5
 21
0.0
 31
0.0
  0
LINE
  5
106
330
FF
100
AcDbEntity
  8
FORMAT
 62
     0
100
AcDbLine
 10
0.0
 20
5.0
 30
0.0
 11
0.0
 21
14.5
 31
0.0
  0
LINE
  5
107
330
FF
100
AcDbEntity
  8
FORMAT
 62
     0
100
AcDbLine
 10
-5.0
 20
0.0
 30
0.0
 11
-14.5
 21
0.0
 31
0.0
  0
LINE
  5
108
330
FF
100
AcDbEntity
  8
FORMAT
 62
     0
100
AcDbLine
 10
0.0
 20
-5.0
 30
0.0
 11
0.0
 21
-14.5
 31
0.0
  0
LINE
  5
109
330
FF
100
AcDbEntity
  8
FORMAT
 62
     0
100
AcDbLine
 10
5.0
 20
0.0
 30
0.0
 11
14.5
 21
0.0
 31
0.0
  0
ENDBLK
  5
101
330
FF
100
AcDbEntity
  8
0
100
AcDbBlockEnd
  0
ENDSEC
  0
SECTION
  2
ENTITIES
  0
CIRCLE
  5
83
330
1F
100
AcDbEntity
  8
0
  6
Continuous
 62
     7
370
    25
100
AcDbCircle
 10
-16.4438518419
 20
203.1909958732
 30
0.0
 40
12.00000000000001
  0
CIRCLE
  5
84
330
1F
100
AcDbEntity
  8
0
  6
Continuous
 62
     7
370
    25
100
AcDbCircle
 10
-16.4438518419
 20
28.1909958732
 30
0.0
 40
11.99999999999998
  0
CIRCLE
  5
85
330
1F
100
AcDbEntity
  8
0
  6
Continuous
 62
     7
370
    25
100
AcDbCircle
 10
135.1105938204
 20
-59.3090041268
 30
0.0
 40
12.00000000000003
  0
CIRCLE
  5
86
330
1F
100
AcDbEntity
  8
0
  6
Continuous
 62
     7
370
    25
100
AcDbCircle
 10
310.1105938204
 20
115.6909958732
 30
0.0
 40
11.99999999999994
  0
CIRCLE
  5
87
330
1F
100
AcDbEntity
  8
0
  6
Continuous
 62
     7
370
    25
100
AcDbCircle
 10
222.6105938204
 20
267.2454415355
 30
0.0
 40
11.99999999999997
  0
CIRCLE
  5
88
330
1F
100
AcDbEntity
  8
0
  6
Continuous
 62
     7
370
    25
100
AcDbCircle
 10
135.1105938204
 20
290.6909958732
 30
0.0
 40
12.0
  0
CIRCLE
  5
89
330
1F
100
AcDbEntity
  8
0
  6
Continuous
 62
     7
370
    25
100
AcDbCircle
 10
135.1105938204
 20
115.6909958732
 30
0.0
 40
196.5
  0
CIRCLE
  5
8A
330
1F
100
AcDbEntity
  8
0
  6
Continuous
 62
     7
370
    25
100
AcDbCircle
 10
135.1105938204
 20
115.6909958732
 30
0.0
 40
148.0
  0
CIRCLE
  5
8B
330
1F
100
AcDbEntity
  8
0
  6
Continuous
 62
     7
370
    25
100
AcDbCircle
 10
286.6650394827
 20
28.1909958732
 30
0.0
 40
12.00000000000006
  0
CIRCLE
  5
8C
330
1F
100
AcDbEntity
  8
0
  6
Continuous
 62
     7
370
    25
100
AcDbCircle
 10
286.6650394827
 20
203.1909958732
 30
0.0
 40
11.99999999999994
  0
CIRCLE
  5
8D
330
1F
100
AcDbEntity
  8
0
  6
Continuous
 62
     7
370
    25
100
AcDbCircle
 10
222.6105938204
 20
-35.8634497891
 30
0.0
 40
11.99999999999997
  0
CIRCLE
  5
8E
330
1F
100
AcDbEntity
  8
0
  6
Continuous
 62
     7
370
    25
100
AcDbCircle
 10
47.6105938204
 20
-35.8634497891
 30
0.0
 40
11.99999999999999
  0
CIRCLE
  5
8F
330
1F
100
AcDbEntity
  8
0
  6
Continuous
 62
     7
370
    25
100
AcDbCircle
 10
-39.8894061796
 20
115.6909958732
 30
0.0
 40
12.00000000000001
  0
CIRCLE
  5
90
330
1F
100
AcDbEntity
  8
0
  6
Continuous
 62
     7
370
    25
100
AcDbCircle
 10
47.6105938204
 20
267.2454415355
 30
0.0
 40
11.99999999999999
  0
CIRCLE
  5
91
330
1F
100
AcDbEntity
  8
0
  6
Continuous
 62
     7
370
    25
100
AcDbCircle
 10
286.6650394827
 20
203.1909958732
 30
0.0
 40
10.99999999999994
  0
CIRCLE
  5
92
330
1F
100
AcDbEntity
  8
0
  6
Continuous
 62
     7
370
    25
100
AcDbCircle
 10
286.6650394827
 20
28.1909958732
 30
0.0
 40
11.00000000000006
  0
CIRCLE
  5
93
330
1F
100
AcDbEntity
  8
0
  6
Continuous
 62
     7
370
    25
100
AcDbCircle
 10
135.1105938204
 20
115.6909958732
 30
0.0
 40
147.0
  0
CIRCLE
  5
94
330
1F
100
AcDbEntity
  8
0
  6
Continuous
 62
     7
370
    25
100
AcDbCircle
 10
135.1105938204
 20
115.6909958732
 30
0.0
 40
197.5
  0
CIRCLE
  5
95
330
1F
100
AcDbEntity
  8
0
  6
Continuous
 62
     7
370
    25
100
AcDbCircle
 10
135.1105938204
 20
290.6909958732
 30
0.0
 40
11.0
  0
CIRCLE
  5
96
330
1F
100
AcDbEntity
  8
0
  6
Continuous
 62
     7
370
    25
100
AcDbCircle
 10
222.6105938204
 20
267.2454415355
 30
0.0
 40
10.99999999999997
  0
CIRCLE
  5
97
330
1F
100
AcDbEntity
  8
0
  6
Continuous
 62
     7
370
    25
100
AcDbCircle
 10
310.1105938204
 20
115.6909958732
 30
0.0
 40
10.99999999999994
  0
CIRCLE
  5
98
330
1F
100
AcDbEntity
  8
0
  6
Continuous
 62
     7
370
    25
100
AcDbCircle
 10
47.6105938204
 20
267.2454415355
 30
0.0
 40
10.99999999999999
  0
CIRCLE
  5
99
330
1F
100
AcDbEntity
  8
0
  6
Continuous
 62
     7
370
    25
100
AcDbCircle
 10
-39.8894061796
 20
115.6909958732
 30
0.0
 40
11.00000000000001
  0
CIRCLE
  5
9A
330
1F
100
AcDbEntity
  8
0
  6
Continuous
 62
     7
370
    25
100
AcDbCircle
 10
47.6105938204
 20
-35.8634497891
 30
0.0
 40
10.99999999999998
  0
CIRCLE
  5
9B
330
1F
100
AcDbEntity
  8
0
  6
Continuous
 62
     7
370
    25
100
AcDbCircle
 10
222.6105938204
 20
-35.8634497891
 30
0.0
 40
10.99999999999997
  0
CIRCLE
  5
9C
330
1F
100
AcDbEntity
  8
0
  6
Continuous
 62
     7
370
    25
100
AcDbCircle
 10
135.1105938204
 20
-59.3090041268
 30
0.0
 40
11.00000000000003
  0
CIRCLE
  5
9D
330
1F
100
AcDbEntity
  8
0
  6
Continuous
 62
     7
370
    25
100
AcDbCircle
 10
-16.4438518419
 20
28.1909958732
 30
0.0
 40
10.99999999999998
  0
CIRCLE
  5
9E
330
1F
100
AcDbEntity
  8
0
  6
Continuous
 62
     7
370
    25
100
AcDbCircle
 10
-16.4438518419
 20
203.1909958732
 30
0.0
 40
11.00000000000001
  0
INSERT
  5
AA
330
1F
100
AcDbEntity
  8
FORMAT
 62
     7
100
AcDbBlockReference
  2
SW_CENTERMARKSYMBOL_0
 10
135.1105938204
 20
115.6909958732
 30
0.0
  0
INSERT
  5
B6
330
1F
100
AcDbEntity
  8
FORMAT
 62
     7
100
AcDbBlockReference
  2
SW_CENTERMARKSYMBOL_1
 10
135.1105938204
 20
290.6909958732
 30
0.0
  0
INSERT
  5
C2
330
1F
100
AcDbEntity
  8
FORMAT
 62
     7
100
AcDbBlockReference
  2
SW_CENTERMARKSYMBOL_2
 10
222.6105938204
 20
267.2454415355
 30
0.0
  0
INSERT
  5
CE
330
1F
100
AcDbEntity
  8
FORMAT
 62
     7
100
AcDbBlockReference
  2
SW_CENTERMARKSYMBOL_3
 10
286.6650394827
 20
203.1909958732
 30
0.0
  0
INSERT
  5
DA
330
1F
100
AcDbEntity
  8
FORMAT
 62
     7
100
AcDbBlockReference
  2
SW_CENTERMARKSYMBOL_4
 10
310.1105938204
 20
115.6909958732
 30
0.0
  0
INSERT
  5
E6
330
1F
100
AcDbEntity
  8
FORMAT
 62
     7
100
AcDbBlockReference
  2
SW_CENTERMARKSYMBOL_5
 10
222.6105938204
 20
-35.8634497891
 30
0.0
  0
INSERT
  5
F2
330
1F
100
AcDbEntity
  8
FORMAT
 62
     7
100
AcDbBlockReference
  2
SW_CENTERMARKSYMBOL_6
 10
286.6650394827
 20
28.1909958732
 30
0.0
  0
INSERT
  5
FE
330
1F
100
AcDbEntity
  8
FORMAT
 62
     7
100
AcDbBlockReference
  2
SW_CENTERMARKSYMBOL_7
 10
47.6105938204
 20
-35.8634497891
 30
0.0
  0
INSERT
  5
10A
330
1F
100
AcDbEntity
  8
FORMAT
 62
     7
100
AcDbBlockReference
  2
SW_CENTERMARKSYMBOL_8
 10
135.1105938204
 20
-59.3090041268
 30
0.0
  0
LINE
  5
10B
330
1F
100
AcDbEntity
  8
0
  6
Continuous
 62
     7
370
    25
100
AcDbLine
 10
-320.5924618596
 20
313.1909958732
 30
0.0
 11
-348.5924618596
 21
313.1909958732
 31
0.0
  0
LINE
  5
10C
330
1F
100
AcDbEntity
  8
0
  6
Continuous
 62
     7
370
    25
100
AcDbLine
 10
-348.5924618596
 20
-81.8090041268
 30
0.0
 11
-320.5924618596
 21
-81.8090041268
 31
0.0
  0
ARC
  5
10D
330
1F
100
AcDbEntity
  8
0
  6
Continuous
 62
     7
370
    25
100
AcDbCircle
 10
-320.5924618596
 20
-80.8090041268
 30
0.0
 40
1.0
100
AcDbArc
 50
270.0
 51
0.0
  0
ARC
  5
10E
330
1F
100
AcDbEntity
  8
0
  6
Continuous
 62
     7
370
    25
100
AcDbCircle
 10
-320.5924618596
 20
312.1909958732
 30
0.0
 40
1.0
100
AcDbArc
 50
0.0
 51
90.0
  0
ARC
  5
10F
330
1F
100
AcDbEntity
  8
0
  6
Continuous
 62
     7
370
    25
100
AcDbCircle
 10
-348.5924618596
 20
-80.8090041268
 30
0.0
 40
1.0
100
AcDbArc
 50
180.0
 51
270.0
  0
ARC
  5
110
330
1F
100
AcDbEntity
  8
0
  6
Continuous
 62
     7
370
    25
100
AcDbCircle
 10
-348.5924618596
 20
312.1909958732
 30
0.0
 40
1.0
100
AcDbArc
 50
90.0
 51
180.0
  0
LINE
  5
111
330
1F
100
AcDbEntity
  8
0
  6
Continuous
 62
     7
370
    25
100
AcDbLine
 10
-319.5924618596
 20
115.6909958732
 30
0.0
 11
-319.5924618596
 21
-80.8090041268
 31
0.0
  0
LINE
  5
112
330
1F
100
AcDbEntity
  8
0
  6
Continuous
 62
     7
370
    25
100
AcDbLine
 10
-319.5924618596
 20
312.1909958732
 30
0.0
 11
-319.5924618596
 21
115.6909958732
 31
0.0
  0
LINE
  5
113
330
1F
100
AcDbEntity
  8
0
  6
Continuous
 62
     7
370
    25
100
AcDbLine
 10
-349.5924618596
 20
115.6909958732
 30
0.0
 11
-349.5924618596
 21
312.1909958732
 31
0.0
  0
LINE
  5
114
330
1F
100
AcDbEntity
  8
0
  6
Continuous
 62
     7
370
    25
100
AcDbLine
 10
-349.5924618596
 20
-80.8090041268
 30
0.0
 11
-349.5924618596
 21
115.6909958732
 31
0.0
  0
LINE
  5
115
330
1F
100
AcDbEntity
  8
0
  6
Continuous
 62
     1
370
    25
100
AcDbLine
 10
-348.5924618596
 20
115.6909958732
 30
0.0
 11
-348.5924618596
 21
-81.8090041268
 31
0.0
  0
LINE
  5
116
330
1F
100
AcDbEntity
  8
0
  6
Continuous
 62
     1
370
    25
100
AcDbLine
 10
-348.5924618596
 20
313.1909958732
 30
0.0
 11
-348.5924618596
 21
115.6909958732
 31
0.0
  0
LINE
  5
117
330
1F
100
AcDbEntity
  8
0
  6
Continuous
 62
     1
370
    25
100
AcDbLine
 10
-320.5924618596
 20
115.6909958732
 30
0.0
 11
-320.5924618596
 21
313.1909958732
 31
0.0
  0
LINE
  5
118
330
1F
100
AcDbEntity
  8
0
  6
Continuous
 62
     1
370
    25
100
AcDbLine
 10
-320.5924618596
 20
-81.8090041268
 30
0.0
 11
-320.5924618596
 21
115.6909958732
 31
0.0
  0
LINE
  5
119
330
1F
100
AcDbEntity
  8
0
  6
Continuous
 62
     7
370
    25
100
AcDbLine
 10
573.923950861
 20
-81.8090041268
 30
0.0
 11
601.923950861
 21
-81.8090041268
 31
0.0
  0
LINE
  5
11A
330
1F
100
AcDbEntity
  8
0
  6
Continuous
 62
     7
370
    25
100
AcDbLine
 10
601.923950861
 20
313.1909958732
 30
0.0
 11
573.923950861
 21
313.1909958732
 31
0.0
  0
ARC
  5
11B
330
1F
100
AcDbEntity
  8
0
  6
Continuous
 62
     7
370
    25
100
AcDbCircle
 10
573.923950861
 20
312.1909958732
 30
0.0
 40
1.0
100
AcDbArc
 50
90.0
 51
180.0
  0
ARC
  5
11C
330
1F
100
AcDbEntity
  8
0
  6
Continuous
 62
     7
370
    25
100
AcDbCircle
 10
573.923950861
 20
-80.8090041268
 30
0.0
 40
1.0
100
AcDbArc
 50
180.0
 51
270.0
  0
ARC
  5
11D
330
1F
100
AcDbEntity
  8
0
  6
Continuous
 62
     7
370
    25
100
AcDbCircle
 10
601.923950861
 20
312.1909958732
 30
0.0
 40
1.0
100
AcDbArc
 50
0.0
 51
90.0
  0
ARC
  5
11E
330
1F
100
AcDbEntity
  8
0
  6
Continuous
 62
     7
370
    25
100
AcDbCircle
 10
601.923950861
 20
-80.8090041268
 30
0.0
 40
1.0
100
AcDbArc
 50
270.0
 51
0.0
  0
LINE
  5
11F
330
1F
100
AcDbEntity
  8
0
  6
Continuous
 62
     7
370
    25
100
AcDbLine
 10
572.923950861
 20
-80.8090041268
 30
0.0
 11
572.923950861
 21
312.1909958732
 31
0.0
  0
LINE
  5
120
330
1F
100
AcDbEntity
  8
0
  6
Continuous
 62
     7
370
    25
100
AcDbLine
 10
602.923950861
 20
312.1909958732
 30
0.0
 11
602.923950861
 21
-80.8090041268
 31
0.0
  0
LINE
  5
121
330
1F
100
AcDbEntity
  8
0
  6
Continuous
 62
     1
370
    25
100
AcDbLine
 10
601.923950861
 20
-81.8090041268
 30
0.0
 11
601.923950861
 21
313.1909958732
 31
0.0
  0
LINE
  5
122
330
1F
100
AcDbEntity
  8
0
  6
Continuous
 62
     1
370
    25
100
AcDbLine
 10
573.923950861
 20
313.1909958732
 30
0.0
 11
573.923950861
 21
-81.8090041268
 31
0.0
  0
LINE
  5
123
330
1F
100
AcDbEntity
  8
0
  6
Continuous
 62
     7
370
    25
100
AcDbLine
 10
332.6105938204
 20
555.41276759
 30
0.0
 11
332.6105938204
 21
583.41276759
 31
0.0
  0
LINE
  5
124
330
1F
100
AcDbEntity
  8
0
  6
Continuous
 62
     7
370
    25
100
AcDbLine
 10
-62.3894061796
 20
583.41276759
 30
0.0
 11
-62.3894061796
 21
555.41276759
 31
0.0
  0
ARC
  5
125
330
1F
100
AcDbEntity
  8
0
  6
Continuous
 62
     7
370
    25
100
AcDbCircle
 10
-61.3894061796
 20
555.41276759
 30
0.0
 40
1.0
100
AcDbArc
 50
180.0
 51
270.0
  0
ARC
  5
126
330
1F
100
AcDbEntity
  8
0
  6
Continuous
 62
     7
370
    25
100
AcDbCircle
 10
331.6105938204
 20
555.41276759
 30
0.0
 40
1.0
100
AcDbArc
 50
270.0
 51
0.0
  0
ARC
  5
127
330
1F
100
AcDbEntity
  8
0
  6
Continuous
 62
     7
370
    25
100
AcDbCircle
 10
-61.3894061796
 20
583.41276759
 30
0.0
 40
1.0
100
AcDbArc
 50
90.0
 51
180.0
  0
ARC
  5
128
330
1F
100
AcDbEntity
  8
0
  6
Continuous
 62
     7
370
    25
100
AcDbCircle
 10
331.6105938204
 20
583.41276759
 30
0.0
 40
1.0
100
AcDbArc
 50
0.0
 51
90.0
  0
LINE
  5
129
330
1F
100
AcDbEntity
  8
0
  6
Continuous
 62
     7
370
    25
100
AcDbLine
 10
331.6105938204
 20
554.41276759
 30
0.0
 11
-61.3894061773
 21
554.41276759
 31
0.0
  0
LINE
  5
12A
330
1F
100
AcDbEntity
  8
0
  6
Continuous
 62
     7
370
    25
100
AcDbLine
 10
331.6105938204
 20
584.41276759
 30
0.0
 11
-61.3894061796
 21
584.41276759
 31
0.0
  0
LINE
  5
12B
330
1F
100
AcDbEntity
  8
0
  6
Continuous
 62
     1
370
    25
100
AcDbLine
 10
332.6105938204
 20
583.41276759
 30
0.0
 11
-62.3894061796
 21
583.41276759
 31
0.0
  0
LINE
  5
12C
330
1F
100
AcDbEntity
  8
0
  6
Continuous
 62
     1
370
    25
100
AcDbLine
 10
-62.3894061796
 20
555.41276759
 30
0.0
 11
332.6105938204
 21
555.41276759
 31
0.0
  0
LINE
  5
12D
330
1F
100
AcDbEntity
  8
0
  6
Continuous
 62
     7
370
    25
100
AcDbLine
 10
-62.3894061796
 20
-352.987031408
 30
0.0
 11
-62.3894061796
 21
-380.987031408
 31
0.0
  0
LINE
  5
12E
330
1F
100
AcDbEntity
  8
0
  6
Continuous
 62
     7
370
    25
100
AcDbLine
 10
332.6105938204
 20
-380.987031408
 30
0.0
 11
332.6105938204
 21
-352.987031408
 31
0.0
  0
ARC
  5
12F
330
1F
100
AcDbEntity
  8
0
  6
Continuous
 62
     7
370
    25
100
AcDbCircle
 10
331.6105938204
 20
-352.987031408
 30
0.0
 40
1.0
100
AcDbArc
 50
0.0
 51
90.0
  0
ARC
  5
130
330
1F
100
AcDbEntity
  8
0
  6
Continuous
 62
     7
370
    25
100
AcDbCircle
 10
-61.3894061796
 20
-352.987031408
 30
0.0
 40
1.0
100
AcDbArc
 50
90.0
 51
180.0
  0
ARC
  5
131
330
1F
100
AcDbEntity
  8
0
  6
Continuous
 62
     7
370
    25
100
AcDbCircle
 10
331.6105938204
 20
-380.987031408
 30
0.0
 40
1.0
100
AcDbArc
 50
270.0
 51
0.0
  0
ARC
  5
132
330
1F
100
AcDbEntity
  8
0
  6
Continuous
 62
     7
370
    25
100
AcDbCircle
 10
-61.3894061796
 20
-380.987031408
 30
0.0
 40
1.0
100
AcDbArc
 50
180.0
 51
270.0
  0
LINE
  5
133
330
1F
100
AcDbEntity
  8
0
  6
Continuous
 62
     7
370
    25
100
AcDbLine
 10
331.6105938204
 20
-351.987031408
 30
0.0
 11
-61.3894061796
 21
-351.987031408
 31
0.0
  0
LINE
  5
134
330
1F
100
AcDbEntity
  8
0
  6
Continuous
 62
     7
370
    25
100
AcDbLine
 10
331.6105938204
 20
-381.987031408
 30
0.0
 11
-61.3894061773
 21
-381.987031408
 31
0.0
  0
LINE
  5
135
330
1F
100
AcDbEntity
  8
0
  6
Continuous
 62
     1
370
    25
100
AcDbLine
 10
-62.3894061796
 20
-380.987031408
 30
0.0
 11
332.6105938204
 21
-380.987031408
 31
0.0
  0
LINE
  5
136
330
1F
100
AcDbEntity
  8
0
  6
Continuous
 62
     1
370
    25
100
AcDbLine
 10
332.6105938204
 20
-352.987031408
 30
0.0
 11
-62.3894061796
 21
-352.987031408
 31
0.0
  0
SPLINE
  5
137
330
1F
100
AcDbEntity
  8
0
  6
Continuous
 62
     7
370
    25
100
AcDbSpline
210
0.0
220
0.0
230
1.0
 70
     8
 71
     3
 72
    73
 73
    69
 74
     0
 42
0.00000001
 43
0.00000001
 40
0.0
 40
0.0
 40
0.0
 40
0.0
 40
0.0024780810520007
 40
0.0178009334598087
 40
0.0331323773493765
 40
0.0484719160098489
 40
0.0638187699468301
 40
0.0791719900864833
 40
0.094530556471594
 40
0.109893455746227
 40
0.1252597358932995
 40
0.1406285401921698
 40
0.1559991242049976
 40
0.1713708601458259
 40
0.186743232703332
 40
0.2021158065489069
 40
0.2174881947098206
 40
0.2328601780214717
 40
0.2482315991620015
 40
0.2636023515684813
 40
0.2789723697345758
 40
0.2943416209305871
 40
0.3097100982804533
 40
0.3250778150687111
 40
0.3404448001243756
 40
0.3558110941245282
 40
0.371176746668731
 40
0.386541813990049
 40
0.4019063571855575
 40
0.4172704408663507
 40
0.4326341321430175
 40
0.4479974998766377
 40
0.4633606141373312
 40
0.4787235458223427
 40
0.494086366393589
 40
0.5094491477007608
 40
0.524811959008304
 40
0.5401748514040746
 40
0.5555378972997194
 40
0.5709011691315412
 40
0.5862647392238587
 40
0.60162867959094
 40
0.6169930616438488
 40
0.6323579557662001
 40
0.647723430716079
 40
0.6630895528026111
 40
0.6784563847749393
 40
0.69382398434834
 40
0.7091924022771817
 40
0.7245616798673746
 40
0.7399318458029248
 40
0.7553029121434275
 40
0.7706748693346305
 40
0.7860476800668822
 40
0.8014212718233084
 40
0.8167955279912259
 40
0.8321702774816194
 40
0.8475452810214378
 40
0.8629200997126202
 40
0.8782942911356711
 40
0.8936673037096987
 40
0.9090384674806998
 40
0.9244069907800094
 40
0.9397719663705592
 40
0.9551323913920222
 40
0.9704872055928249
 40
0.9858353515620809
 40
1.0
 40
1.0
 40
1.0
 40
1.0
 10
645.9332719356931
 20
-166.1313810933017
 30
0.0
 10
645.6727249686825
 20
-166.1039334125559
 30
0.0
 10
643.8011238686427
 20
-165.9067670050295
 30
0.0
 10
640.2130659144849
 20
-165.8181612159518
 30
0.0
 10
635.171658033694
 20
-165.8836760868696
 30
0.0
 10
630.0265744777516
 20
-166.2653893625111
 30
0.0
 10
624.799170348665
 20
-166.9285562574127
 30
0.0
 10
619.4944664594681
 20
-167.8813649443146
 30
0.0
 10
614.1220482900691
 20
-169.1198465471957
 30
0.0
 10
608.6904217585889
 20
-170.6426538552035
 30
0.0
 10
603.2084909625656
 20
-172.4471115788771
 30
0.0
 10
597.6851319048855
 20
-174.530291523804
 30
0.0
 10
592.1292819032055
 20
-176.8887420755946
 30
0.0
 10
586.5498951216979
 20
-179.5185784323061
 30
0.0
 10
580.955940040405
 20
-182.4154738926019
 30
0.0
 10
575.3563909987455
 20
-185.5746739495183
 30
0.0
 10
569.7602070553022
 20
-188.9910108593759
 30
0.0
 10
564.1763188818612
 20
-192.6589173189529
 30
0.0
 10
558.6136136313287
 20
-196.5724416287426
 30
0.0
 10
553.0809355202413
 20
-200.7252510986379
 30
0.0
 10
547.5870746468971
 20
-205.110641920606
 30
0.0
 10
542.1407554080602
 20
-209.7215493003755
 30
0.0
 10
536.7506245628105
 20
-214.5505579598853
 30
0.0
 10
531.4252390060391
 20
-219.5899131023176
 30
0.0
 10
526.1730533264297
 20
-224.8315318961927
 30
0.0
 10
521.002407225697
 20
-230.2670155113072
 30
0.0
 10
515.9215128737303
 20
-235.8876617197353
 30
0.0
 10
510.9384422693834
 20
-241.684478060697
 30
0.0
 10
506.0611146706637
 20
-247.6481955574268
 30
0.0
 10
501.2972841518011
 20
-253.7692829665064
 30
0.0
 10
496.654527338664
 20
-260.0379615346997
 30
0.0
 10
492.1402313685234
 20
-266.4442202345336
 30
0.0
 10
487.7615821153129
 20
-272.9778314472483
 30
0.0
 10
483.5255527173568
 20
-279.6283670598838
 30
0.0
 10
479.4388924409222
 20
-286.3852149420279
 30
0.0
 10
475.5081161532932
 20
-293.2375953423954
 30
0.0
 10
471.7394953916983
 20
-300.1745752266269
 30
0.0
 10
468.1390463183841
 20
-307.1850887264196
 30
0.0
 10
464.7125199665542
 20
-314.2579553027497
 30
0.0
 10
461.4653920402396
 20
-321.3819005194995
 30
0.0
 10
458.4028560869646
 20
-328.5455708385475
 30
0.0
 10
455.5298154402581
 20
-335.737551718854
 30
0.0
 10
452.8508756816813
 20
-342.9463857865197
 30
0.0
 10
450.3703376376397
 20
-350.1605910290457
 30
0.0
 10
448.0921909231135
 20
-357.3686789652371
 30
0.0
 10
446.0201080412032
 20
-364.5591727389276
 30
0.0
 10
444.1574390430793
 20
-371.7206250811365
 30
0.0
 10
442.5072067473247
 20
-378.8416360813264
 30
0.0
 10
441.0721025103003
 20
-385.9108707042801
 30
0.0
 10
439.854482529555
 20
-392.9170759850923
 30
0.0
 10
438.8563646498067
 20
-399.8490978314683
 30
0.0
 10
438.0794256252837
 20
-406.6958973604938
 30
0.0
 10
437.5249987715859
 20
-413.4465666988874
 30
0.0
 10
437.1940719184795
 20
-420.0903441784461
 30
0.0
 10
437.0872855366291
 20
-426.6166288832256
 30
0.0
 10
437.2049309155464
 20
-433.0149944859879
 30
0.0
 10
437.5469480873084
 20
-439.2752022532389
 30
0.0
 10
438.1129221810455
 20
-445.3871974095771
 30
0.0
 10
438.9020778007252
 20
-451.3411361925267
 30
0.0
 10
439.9132778224052
 20
-457.1273944426329
 30
0.0
 10
441.1450089090041
 20
-462.736610114522
 30
0.0
 10
442.5954225003236
 20
-468.1596267000493
 30
0.0
 10
444.2621491552385
 20
-473.3877258096169
 30
0.0
 10
446.1429603546739
 20
-478.4118364293599
 30
0.0
 10
448.2332694871669
 20
-483.2255750999876
 30
0.0
 10
450.5354300578849
 20
-487.8140117390547
 30
0.0
 10
452.9604899555605
 20
-492.0837970900801
 30
0.0
 10
454.7184048670524
 20
-494.7016902938075
 30
0.0
 10
455.5621151020618
 20
-495.9581466078799
 30
0.0
  0
LINE
  5
138
330
1F
100
AcDbEntity
  8
0
  6
Continuous
 62
     7
370
    25
100
AcDbLine
 10
695.6120724856
 20
-186.6118776783
 30
0.0
 11
675.8130826124
 21
-175.1821641128
 31
0.0
  0
LINE
  5
139
330
1F
100
AcDbEntity
  8
0
  6
Continuous
 62
     7
370
    25
100
AcDbLine
 10
478.3291329168
 20
-517.2714647532
 30
0.0
 11
498.12812279
 21
-528.7011783187
 31
0.0
  0
SPLINE
  5
13A
330
1F
100
AcDbEntity
  8
0
  6
Continuous
 62
     7
370
    25
100
AcDbSpline
210
0.0
220
0.0
230
1.0
 70
     8
 71
     3
 72
    60
 73
    56
 74
     0
 42
0.00000001
 43
0.00000001
 40
0.0
 40
0.0
 40
0.0
 40
0.0
 40
0.0124864304105642
 40
0.0316227735477918
 40
0.0507695879180565
 40
0.0699260593328767
 40
0.0890910923488149
 40
0.1082634441038094
 40
0.1274418349567324
 40
0.1466250310049101
 40
0.1658118990140346
 40
0.1850014375982659
 40
0.2041927899105908
 40
0.2233852431976199
 40
0.2425782199056055
 40
0.2617711757782004
 40
0.2809637530149931
 40
0.3001557182522496
 40
0.3193469082451767
 40
0.3385372168696132
 40
0.3577265838956428
 40
0.3769149855095941
 40
0.3961024264576712
 40
0.4152889336321117
 40
0.4344745509036886
 40
0.4536593350079521
 40
0.4728433523079172
 40
0.4920266762760329
 40
0.511209385559989
 40
0.5303915625176949
 40
0.5495732921255875
 40
0.56875466118069
 40
0.5879357577305846
 40
0.6071166706765615
 40
0.6262974895040154
 40
0.6454783041007606
 40
0.6646591861121719
 40
0.683840214361137
 40
0.7030214792881606
 40
0.7222030712871695
 40
0.7413850805014642
 40
0.7605675965224982
 40
0.779750707948473
 40
0.7989345017539105
 40
0.818119062411665
 40
0.8373044706967692
 40
0.8564908020865988
 40
0.8756781246544045
 40
0.8948664963330962
 40
0.9140559614041425
 40
0.9332465460437505
 40
0.9524382527377023
 40
0.9716310533615864
 40
0.9908248807216193
 40
1.0
 40
1.0
 40
1.0
 40
1.0
 10
528.0458702622302
 20
-537.7414771350998
 30
0.0
 10
529.1067657293595
 20
-537.8277278853359
 30
0.0
 10
531.7935589930712
 20
-538.0461640479025
 30
0.0
 10
536.2261076813602
 20
-538.0677126327455
 30
0.0
 10
541.3197451710168
 20
-537.8460328624413
 30
0.0
 10
546.5069765781163
 20
-537.3237633534238
 30
0.0
 10
551.7739073681015
 20
-536.5163357969531
 30
0.0
 10
557.1134189101172
 20
-535.4210623051771
 30
0.0
 10
562.5164115934984
 20
-534.0407557871836
 30
0.0
 10
567.9741909802087
 20
-532.377386515216
 30
0.0
 10
573.4778609384178
 20
-530.4337680616131
 30
0.0
 10
579.0185137427392
 20
-528.2130881260836
 30
0.0
 10
584.587201676374
 20
-525.7190164486467
 30
0.0
 10
590.1749633860904
 20
-522.9556584923346
 30
0.0
 10
595.7728242941623
 20
-519.9275561132797
 30
0.0
 10
601.3718163895528
 20
-516.6396709854896
 30
0.0
 10
606.9629920997785
 20
-513.0973721433626
 30
0.0
 10
612.5374429481068
 20
-509.3064185283178
 30
0.0
 10
618.0863017845676
 20
-505.2729527392238
 30
0.0
 10
623.600749911412
 20
-501.0034934719307
 30
0.0
 10
629.0720284682427
 20
-496.5049255360668
 30
0.0
 10
634.4914501979017
 20
-491.7844895519034
 30
0.0
 10
639.8504115360583
 20
-486.8497712266059
 30
0.0
 10
645.1404049546059
 20
-481.7086901362643
 30
0.0
 10
650.3530314823015
 20
-476.369487969813
 30
0.0
 10
655.4800133265028
 20
-470.8407162124329
 30
0.0
 10
660.5132065235696
 20
-465.131223262939
 30
0.0
 10
665.4446135511008
 20
-459.2501409920792
 30
0.0
 10
670.266395841379
 20
-453.2068707577562
 30
0.0
 10
674.9708861415905
 20
-447.0110688996494
 30
0.0
 10
679.5506006721502
 20
-440.6726317402587
 30
0.0
 10
683.998251039631
 20
-434.2016801225502
 30
0.0
 10
688.3067558653013
 20
-427.6085435165953
 30
0.0
 10
692.4692520941956
 20
-420.9037437290592
 30
0.0
 10
696.4791059527848
 20
-414.0979782508493
 30
0.0
 10
700.3299222875776
 20
-407.2021054970256
 30
0.0
 10
704.0155554759733
 20
-400.2271268313688
 30
0.0
 10
707.5301200869719
 20
-393.1841676553412
 30
0.0
 10
710.8680011898224
 20
-386.0844572875862
 30
0.0
 10
714.0238625112396
 20
-378.9393118007891
 30
0.0
 10
716.9926540091219
 20
-371.7601173711152
 30
0.0
 10
719.7696196764151
 20
-364.5583121363879
 30
0.0
 10
722.3503048034139
 20
-357.3453680146367
 30
0.0
 10
724.7305627515452
 20
-350.132772491243
 30
0.0
 10
726.9065609787693
 20
-342.9320105715298
 30
0.0
 10
728.8747872399144
 20
-335.7545464047763
 30
0.0
 10
730.6320524881338
 20
-328.6118066806462
 30
0.0
 10
732.1755034398452
 20
-321.5151582317588
 30
0.0
 10
733.502596452645
 20
-314.4759083769447
 30
0.0
 10
734.6112132490038
 20
-307.5052218180613
 30
0.0
 10
735.4992447981721
 20
-300.6143507500952
 30
0.0
 10
736.1661580062851
 20
-293.8136980441913
 30
0.0
 10
736.6071598887536
 20
-287.1162382800935
 30
0.0
 10
736.795344978986
 20
-281.6716609654587
 30
0.0
 10
736.8113906352733
 20
-278.4774927779731
 30
0.0
 10
736.8165801409751
 20
-277.4444310119185
 30
0.0
  0
SPLINE
  5
13B
330
1F
100
AcDbEntity
  8
0
  6
Continuous
 62
     7
370
    25
100
AcDbSpline
210
0.0
220
0.0
230
1.0
 70
     8
 71
     3
 72
    21
 73
    17
 74
     0
 42
0.00000001
 43
0.00000001
 40
0.0
 40
0.0
 40
0.0
 40
0.0
 40
0.0407126808388334
 40
0.1180496285440766
 40
0.1953929001598234
 40
0.2727364105361328
 40
0.3500779384653102
 40
0.4274149896287958
 40
0.5047444946022341
 40
0.5820627753170752
 40
0.6593655496839231
 40
0.7366479945190166
 40
0.8139048893526519
 40
0.8911308624952929
 40
0.9683207534871371
 40
1.0
 40
1.0
 40
1.0
 40
1.0
 10
736.8165801409751
 20
-277.4444310119185
 30
0.0
 10
736.8103245677313
 20
-276.3135420802142
 30
0.0
 10
736.7921860398195
 20
-273.0344404450066
 30
0.0
 10
736.5906524431842
 20
-267.7077466033132
 30
0.0
 10
736.1385091735879
 20
-261.5195090774503
 30
0.0
 10
735.4596988977074
 20
-255.4860255015374
 30
0.0
 10
734.5590502036118
 20
-249.6150052887795
 30
0.0
 10
733.4368453684947
 20
-243.9165268060959
 30
0.0
 10
732.0950746385189
 20
-238.3996580318453
 30
0.0
 10
730.5356530836766
 20
-233.0735244073092
 30
0.0
 10
728.7613460104101
 20
-227.9464694034474
 30
0.0
 10
726.7738906509513
 20
-223.0282477529238
 30
0.0
 10
724.5806174871827
 20
-218.3219747125159
 30
0.0
 10
722.1698807611183
 20
-213.8539792086488
 30
0.0
 10
720.1067635479726
 20
-210.405047847063
 30
0.0
 10
718.7784076955644
 20
-208.5331841814331
 30
0.0
 10
718.3918765493669
 20
-207.9885006112212
 30
0.0
  0
SPLINE
  5
13C
330
1F
100
AcDbEntity
  8
0
  6
Continuous
 62
     7
370
    25
100
AcDbSpline
210
0.0
220
0.0
230
1.0
 70
     8
 71
     3
 72
    20
 73
    16
 74
     0
 42
0.00000001
 43
0.00000001
 40
0.0
 40
0.0
 40
0.0
 40
0.0
 40
0.0770420332767378
 40
0.1601996951808116
 40
0.2432835447730284
 40
0.326300500223224
 40
0.4092599699962424
 40
0.4921723534820469
 40
0.575047925823732
 40
0.6578961187517355
 40
0.7407251360922591
 40
0.8235418163781496
 40
0.9063516576731527
 40
0.9847938538472316
 40
1.0
 40
1.0
 40
1.0
 40
1.0
 10
665.0139126811412
 20
-231.5612850163899
 30
0.0
 10
665.7839792527526
 20
-232.5721921548895
 30
0.0
 10
667.3852406005411
 20
-234.6742526607698
 30
0.0
 10
669.5809229758162
 20
-238.168122617792
 30
0.0
 10
671.6502061281775
 20
-241.9607596990239
 30
0.0
 10
673.5126982229771
 20
-245.9820636028898
 30
0.0
 10
675.170063612826
 20
-250.216323762846
 30
0.0
 10
676.6174544362226
 20
-254.6565839813856
 30
0.0
 10
677.8522336364183
 20
-259.2930413437107
 30
0.0
 10
678.8716986356543
 20
-264.1161066771336
 30
0.0
 10
679.6735159316129
 20
-269.1156838154318
 30
0.0
 10
680.2563460605668
 20
-274.2809797917409
 30
0.0
 10
680.6106820492662
 20
-279.5085324472425
 30
0.0
 10
680.7172277552368
 20
-283.3854856128497
 30
0.0
 10
680.7221174209184
 20
-285.4735627151509
 30
0.0
 10
680.7229113802042
 20
-285.8126141581013
 30
0.0
  0
SPLINE
  5
13D
330
1F
100
AcDbEntity
  8
0
  6
Continuous
 62
     7
370
    25
100
AcDbSpline
210
0.0
220
0.0
230
1.0
 70
     8
 71
     3
 72
    53
 73
    49
 74
     0
 42
0.00000001
 43
0.00000001
 40
0.0
 40
0.0
 40
0.0
 40
0.0
 40
0.0116370029177393
 40
0.033767207652727
 40
0.0559000846069171
 40
0.0780342921368481
 40
0.1001700634024096
 40
0.1223075212427179
 40
0.1444467038613357
 40
0.1665875856777384
 40
0.1887300937360329
 40
0.2108741204123826
 40
0.2330195331104322
 40
0.2551661815491216
 40
0.2773139031535499
 40
0.2994625269702608
 40
0.3216118764490106
 40
0.3437617713665654
 40
0.3659120291142097
 40
0.3880624655287511
 40
0.4102128930721692
 40
0.432363066363943
 40
0.4545127991973096
 40
0.4766619054182291
 40
0.498810199469692
 40
0.5209574972740546
 40
0.5431036175966437
 40
0.5652483840778947
 40
0.5873916281656969
 40
0.6095331932364566
 40
0.6316729402634254
 40
0.6538107554736995
 40
0.6759465605287861
 40
0.6980803258607036
 40
0.7202120878828093
 40
0.742341970846069
 40
0.7644702140842514
 40
0.786597205214894
 40
0.8087235194307404
 40
0.8308497646498164
 40
0.8529768361741061
 40
0.8751060367870539
 40
0.8972390233089202
 40
0.9193778318525295
 40
0.9415248710102
 40
0.9636828624478067
 40
0.9858547052256382
 40
1.0
 40
1.0
 40
1.0
 40
1.0
 10
680.7229113802042
 20
-285.8126141581014
 30
0.0
 10
680.7167344346539
 20
-286.7884207697943
 30
0.0
 10
680.6988107300252
 20
-289.6199285659905
 30
0.0
 10
680.4995176720594
 20
-294.4033364122701
 30
0.0
 10
680.0522547887886
 20
-300.1899061966026
 30
0.0
 10
679.3809878068823
 20
-306.0779699121587
 30
0.0
 10
678.4908586781412
 20
-312.0523982808966
 30
0.0
 10
677.3826401425905
 20
-318.1009394425139
 30
0.0
 10
676.0588840360381
 20
-324.2103837561791
 30
0.0
 10
674.5222714658227
 20
-330.367591924618
 30
0.0
 10
672.7760475745349
 20
-336.5592595308912
 30
0.0
 10
670.8238959356167
 20
-342.7720197052008
 30
0.0
 10
668.6699615951799
 20
-348.9924546908498
 30
0.0
 10
666.3188329264692
 20
-355.2071313549076
 30
0.0
 10
663.7755332952838
 20
-361.4026298368544
 30
0.0
 10
661.0455089659204
 20
-367.5655736088726
 30
0.0
 10
658.1346169577982
 20
-373.6826587402316
 30
0.0
 10
655.049111916468
 20
-379.7406829571889
 30
0.0
 10
651.7956322969342
 20
-385.7265743307509
 30
0.0
 10
648.3811859403185
 20
-391.6274194110017
 30
0.0
 10
644.8131379456772
 20
-397.4304862234976
 30
0.0
 10
641.099192171813
 20
-403.1232574861614
 30
0.0
 10
637.2473744514895
 20
-408.6934581219494
 30
0.0
 10
633.2660117355313
 20
-414.1290865501628
 30
0.0
 10
629.1637175157638
 20
-419.4184357200762
 30
0.0
 10
624.9493734598525
 20
-424.5501188386211
 30
0.0
 10
620.6321104550917
 20
-429.5130945754032
 30
0.0
 10
616.2212890604249
 20
-434.2966917170123
 30
0.0
 10
611.7264793542587
 20
-438.8906332441381
 30
0.0
 10
607.1574401522637
 20
-443.2850598021423
 30
0.0
 10
602.5240975521947
 20
-447.4705525300686
 30
0.0
 10
597.8365227422458
 20
-451.4381552013635
 30
0.0
 10
593.1049089846854
 20
-455.1793956122669
 30
0.0
 10
588.3395476629865
 20
-458.6863061167088
 30
0.0
 10
583.5508032451846
 20
-461.9514431854621
 30
0.0
 10
578.7490870333144
 20
-464.9679057078706
 30
0.0
 10
573.9448294256312
 20
-467.729352009668
 30
0.0
 10
569.1484509564032
 20
-470.2300141450012
 30
0.0
 10
564.3703448927441
 20
-472.4647059868871
 30
0.0
 10
559.6208474101495
 20
-474.4288282794406
 30
0.0
 10
554.9101842212186
 20
-476.1184133139885
 30
0.0
 10
550.2484711477366
 20
-477.530007318384
 30
0.0
 10
545.6454994689107
 20
-478.6611221523056
 30
0.0
 10
541.1113895492864
 20
-479.5085048581072
 30
0.0
 10
536.6540271066447
 20
-480.0745245929253
 30
0.0
 10
532.288515150895
 20
-480.3432251082012
 30
0.0
 10
528.5201333909016
 20
-480.3664512424868
 30
0.0
 10
526.2569415957378
 20
-480.1798518873366
 30
0.0
 10
525.3754427433709
 20
-480.1071726218104
 30
0.0
  0
SPLINE
  5
13E
330
1F
100
AcDbEntity
  8
0
  6
Continuous
 62
     7
370
    25
100
AcDbSpline
210
0.0
220
0.0
230
1.0
 70
     8
 71
     3
 72
    67
 73
    63
 74
     0
 42
0.00000001
 43
0.00000001
 40
0.0
 40
0.0
 40
0.0
 40
0.0
 40
0.0001833827489286
 40
0.0174949150786253
 40
0.0347905581593427
 40
0.0520706829172479
 40
0.0693366032855474
 40
0.086590210997804
 40
0.1038336521201102
 40
0.1210690806542415
 40
0.1382984954728839
 40
0.1555236496541234
 40
0.1727460144090098
 40
0.1899667795799515
 40
0.2071868757238383
 40
0.2244068860577259
 40
0.2416272920976075
 40
0.2588485000165698
 40
0.2760707812953737
 40
0.2932943011950729
 40
0.3105191426653004
 40
0.3277453258594867
 40
0.3449728237240247
 40
0.3622015742305715
 40
0.3794314898245012
 40
0.3966624646155835
 40
0.4138943797687763
 40
0.431127107480108
 40
0.4483605138542589
 40
0.4655944609404103
 40
0.482828808132842
 40
0.5000634131025595
 40
0.5172981323950638
 40
0.5345328117192765
 40
0.5517672683503884
 40
0.5690013573897094
 40
0.5862349340387117
 40
0.6034678540601173
 40
0.6206999745195766
 40
0.637931154924773
 40
0.6551612589129272
 40
0.6723901566738476
 40
0.689617728341637
 40
0.7068438686444032
 40
0.724068493167442
 40
0.7412915466590215
 40
0.7585130138831426
 40
0.7757329335883982
 40
0.7929514161946171
 40
0.8101686657622477
 40
0.8273850066447994
 40
0.8446009148433611
 40
0.8618168514726595
 40
0.8790335868055902
 40
0.8962521797271215
 40
0.9134739691612572
 40
0.9307005904117788
 40
0.9479339640673049
 40
0.9651762409251106
 40
0.9824296843967443
 40
0.9996964743676696
 40
1.0
 40
1.0
 40
1.0
 40
1.0
 10
509.5794191873007
 20
-473.1481823316608
 30
0.0
 10
509.5699698376017
 20
-473.1374718289231
 30
0.0
 10
508.6684915278976
 20
-472.1156781381833
 30
0.0
 10
507.0441349068113
 20
-469.8541405353939
 30
0.0
 10
504.7286739037131
 20
-466.3528146196604
 30
0.0
 10
502.6331362530722
 20
-462.5883191805672
 30
0.0
 10
500.7334264895057
 20
-458.6076425895963
 30
0.0
 10
499.0409721517126
 20
-454.4088019719084
 30
0.0
 10
497.557202163785
 20
-450.0034024779977
 30
0.0
 10
496.285742457784
 20
-445.3999183095866
 30
0.0
 10
495.2291473769627
 20
-440.6081858786962
 30
0.0
 10
494.3897583509352
 20
-435.6382087956861
 30
0.0
 10
493.7694515957612
 20
-430.50047346023
 30
0.0
 10
493.36968195785
 20
-425.2058488653224
 30
0.0
 10
493.1914497198492
 20
-419.7656012768947
 30
0.0
 10
493.2352885853371
 20
-414.1913542437003
 30
0.0
 10
493.5012539278661
 20
-408.495052216306
 30
0.0
 10
493.988919370173
 20
-402.6889152732813
 30
0.0
 10
494.6973749708897
 20
-396.7854169107387
 30
0.0
 10
495.6252257550398
 20
-390.797261698252
 30
0.0
 10
496.7705927385017
 20
-384.7373529564921
 30
0.0
 10
498.1311160372941
 20
-378.6187606044357
 30
0.0
 10
499.7039597342378
 20
-372.4546893323268
 30
0.0
 10
501.4858182469688
 20
-366.2584471542426
 30
0.0
 10
503.4729239931805
 20
-360.0434143528566
 30
0.0
 10
505.6610561971297
 20
-353.8230128051217
 30
0.0
 10
508.0455507191118
 20
-347.6106756702843
 30
0.0
 10
510.6213108187529
 20
-341.4198174225492
 30
0.0
 10
513.3828187844064
 20
-335.2638042162875
 30
0.0
 10
516.3241483763123
 20
-329.1559245790897
 30
0.0
 10
519.4389780418037
 20
-323.1093604356619
 30
0.0
 10
522.720604868039
 20
-317.1371584726112
 30
0.0
 10
526.1619585710738
 20
-311.2522030082151
 30
0.0
 10
529.7556147324625
 20
-305.4671911099694
 30
0.0
 10
533.4938129861948
 20
-299.7946004302219
 30
0.0
 10
537.368474561095
 20
-294.2466609229889
 30
0.0
 10
541.3712220254827
 20
-288.8353254482181
 30
0.0
 10
545.4933945179296
 20
-283.5722478821892
 30
0.0
 10
549.7260662141477
 20
-278.4687574776805
 30
0.0
 10
554.0600653844241
 20
-273.5358337516529
 30
0.0
 10
558.4859940441378
 20
-268.7840819281039
 30
0.0
 10
562.9942482118545
 20
-264.2237089629126
 30
0.0
 10
567.5750388035045
 20
-259.8645001806801
 30
0.0
 10
572.2184132088381
 20
-255.7157965602539
 30
0.0
 10
576.9142776178271
 20
-251.7864727176234
 30
0.0
 10
581.6524201886417
 20
-248.0849156570532
 30
0.0
 10
586.4225351773513
 20
-244.6190043889122
 30
0.0
 10
591.214248166352
 20
-241.3960905812238
 30
0.0
 10
596.0171425771892
 20
-238.4229804099849
 30
0.0
 10
600.8207875407716
 20
-235.7059181401972
 30
0.0
 10
605.6147675937596
 20
-233.2505710863645
 30
0.0
 10
610.3886943351044
 20
-231.062028073502
 30
0.0
 10
615.1322503598658
 20
-229.144774996143
 30
0.0
 10
619.8352156628962
 20
-227.5027117308692
 30
0.0
 10
624.4875608388054
 20
-226.139050696027
 30
0.0
 10
629.0793197707553
 20
-225.0566870691935
 30
0.0
 10
633.60118751161
 20
-224.2568737375545
 30
0.0
 10
638.0424195532031
 20
-223.744243629475
 30
0.0
 10
642.3987925003737
 20
-223.5081559083728
 30
0.0
 10
646.6429379176631
 20
-223.5924969698584
 30
0.0
 10
649.461146637615
 20
-223.7555508053486
 30
0.0
 10
650.8276248787073
 20
-223.9694293614261
 30
0.0
 10
650.8512306682422
 20
-223.9731240943746
 30
0.0
  0
SPLINE
  5
13F
330
1F
100
AcDbEntity
  8
0
  6
Continuous
 62
     7
370
    25
100
AcDbSpline
210
0.0
220
0.0
230
1.0
 70
     8
 71
     3
 72
    13
 73
     9
 74
     0
 42
0.00000001
 43
0.00000001
 40
0.0
 40
0.0
 40
0.0
 40
0.0
 40
0.0301718316562262
 40
0.2730495324890742
 40
0.4848307094693821
 40
0.7100393803268737
 40
0.9297739421877346
 40
1.0
 40
1.0
 40
1.0
 40
1.0
 10
689.8423987265959
 20
-346.3658970952108
 30
0.0
 10
689.8787852802694
 20
-346.3830257263319
 30
0.0
 10
690.2080769050754
 20
-346.5380366906348
 30
0.0
 10
690.6602584594334
 20
-347.0494734180494
 30
0.0
 10
691.2113600413093
 20
-347.9418298944914
 30
0.0
 10
691.570974993443
 20
-349.0694339422161
 30
0.0
 10
691.7102106609871
 20
-350.1137402014992
 30
0.0
 10
691.7193515403925
 20
-350.7551928730424
 30
0.0
 10
691.721565385591
 20
-350.9105473913435
 30
0.0
  0
SPLINE
  5
140
330
1F
100
AcDbEntity
  8
0
  6
Continuous
 62
     7
370
    25
100
AcDbSpline
210
0.0
220
0.0
230
1.0
 70
     8
 71
     3
 72
    22
 73
    18
 74
     0
 42
0.00000001
 43
0.00000001
 40
0.0
 40
0.0
 40
0.0
 40
0.0
 40
0.0362934660826161
 40
0.1059968498303411
 40
0.1759513347607058
 40
0.2461213226811247
 40
0.3164540845392621
 40
0.386864562004565
 40
0.4572511292761193
 40
0.5274906044540789
 40
0.5974864248553865
 40
0.667157627245468
 40
0.7364816323994486
 40
0.8056017084958218
 40
0.8748537277511642
 40
0.9452202796697987
 40
1.0
 40
1.0
 40
1.0
 40
1.0
 10
691.721565385591
 20
-350.9105473913435
 30
0.0
 10
691.7159203397102
 20
-351.1681427730254
 30
0.0
 10
691.6994337060238
 20
-351.9204627340609
 30
0.0
 10
691.5126759560384
 20
-353.2672369825287
 30
0.0
 10
691.091812121858
 20
-354.9380523789255
 30
0.0
 10
690.4676696400478
 20
-356.6390571705368
 30
0.0
 10
689.6598931654624
 20
-358.3164621431375
 30
0.0
 10
688.690333439531
 20
-359.9207550132242
 30
0.0
 10
687.5882775804467
 20
-361.4035644343888
 30
0.0
 10
686.387974066714
 20
-362.720929484536
 30
0.0
 10
685.1280961934722
 20
-363.8346795947328
 30
0.0
 10
683.8502119046157
 20
-364.7146841597222
 30
0.0
 10
682.5979340792454
 20
-365.3396341671105
 30
0.0
 10
681.4126515027561
 20
-365.7028166945087
 30
0.0
 10
680.3367191945044
 20
-365.798869708211
 30
0.0
 10
679.4536817635801
 20
-365.6879658595134
 30
0.0
 10
678.9953600505436
 20
-365.4446119087922
 30
0.0
 10
678.7947409285335
 20
-365.33808966788
 30
0.0
  0
SPLINE
  5
141
330
1F
100
AcDbEntity
  8
0
  6
Continuous
 62
     7
370
    25
100
AcDbSpline
210
0.0
220
0.0
230
1.0
 70
     8
 71
     3
 72
    13
 73
     9
 74
     0
 42
0.00000001
 43
0.00000001
 40
0.0
 40
0.0
 40
0.0
 40
0.0
 40
0.0301718316562775
 40
0.2730495324891306
 40
0.4848307094694472
 40
0.7100393803269546
 40
0.9297739421878067
 40
0.9999999999999999
 40
0.9999999999999999
 40
0.9999999999999999
 40
0.9999999999999999
 10
644.549065833647
 20
-424.8162506796773
 30
0.0
 10
644.5854523873205
 20
-424.8333793107985
 30
0.0
 10
644.9147440121266
 20
-424.9883902751014
 30
0.0
 10
645.3669255664847
 20
-425.4998270025162
 30
0.0
 10
645.9180271483605
 20
-426.3921834789584
 30
0.0
 10
646.2776421004942
 20
-427.519787526683
 30
0.0
 10
646.4168777680381
 20
-428.5640937859661
 30
0.0
 10
646.4260186474437
 20
-429.2055464575091
 30
0.0
 10
646.4282324926421
 20
-429.3609009758101
 30
0.0
  0
SPLINE
  5
142
330
1F
100
AcDbEntity
  8
0
  6
Continuous
 62
     7
370
    25
100
AcDbSpline
210
0.0
220
0.0
230
1.0
 70
     8
 71
     3
 72
    22
 73
    18
 74
     0
 42
0.00000001
 43
0.00000001
 40
0.0
 40
0.0
 40
0.0
 40
0.0
 40
0.0362934660826154
 40
0.1059968498303067
 40
0.1759513347606803
 40
0.2461213226811056
 40
0.3164540845392406
 40
0.3868645620045483
 40
0.4572511292761051
 40
0.5274906044540627
 40
0.5974864248553673
 40
0.6671576272454491
 40
0.7364816323994302
 40
0.8056017084958074
 40
0.8748537277511499
 40
0.9452202796697898
 40
0.9999999999999999
 40
0.9999999999999999
 40
0.9999999999999999
 40
0.9999999999999999
 10
646.4282324926421
 20
-429.3609009758101
 30
0.0
 10
646.4225874467613
 20
-429.6184963574919
 30
0.0
 10
646.4061008130749
 20
-430.3708163185273
 30
0.0
 10
646.2193430630896
 20
-431.7175905669949
 30
0.0
 10
645.7984792289093
 20
-433.3884059633915
 30
0.0
 10
645.1743367470991
 20
-435.0894107550029
 30
0.0
 10
644.3665602725138
 20
-436.7668157276036
 30
0.0
 10
643.3970005465823
 20
-438.3711085976904
 30
0.0
 10
642.2949446874981
 20
-439.8539180188551
 30
0.0
 10
641.0946411737655
 20
-441.1712830690024
 30
0.0
 10
639.8347633005235
 20
-442.2850331791993
 30
0.0
 10
638.556879011667
 20
-443.1650377441885
 30
0.0
 10
637.3046011862967
 20
-443.7899877515769
 30
0.0
 10
636.1193186098075
 20
-444.1531702789752
 30
0.0
 10
635.0433863015556
 20
-444.2492232926776
 30
0.0
 10
634.1603488706313
 20
-444.13831944398
 30
0.0
 10
633.7020271575947
 20
-443.8949654932587
 30
0.0
 10
633.5014080355846
 20
-443.7884432523465
 30
0.0
  0
SPLINE
  5
143
330
1F
100
AcDbEntity
  8
0
  6
Continuous
 62
     7
370
    25
100
AcDbSpline
210
0.0
220
0.0
230
1.0
 70
     8
 71
     3
 72
    13
 73
     9
 74
     0
 42
0.00000001
 43
0.00000001
 40
0.0
 40
0.0
 40
0.0
 40
0.0
 40
0.030171831656202
 40
0.2730495324890372
 40
0.4848307094693444
 40
0.7100393803268578
 40
0.9297739421877211
 40
1.0
 40
1.0
 40
1.0
 40
1.0
 10
706.4209091874843
 20
-265.3480056814506
 30
0.0
 10
706.4572957411578
 20
-265.3651343125717
 30
0.0
 10
706.7865873659638
 20
-265.5201452768745
 30
0.0
 10
707.2387689203218
 20
-266.0315820042891
 30
0.0
 10
707.7898705021976
 20
-266.9239384807311
 30
0.0
 10
708.1494854543315
 20
-268.0515425284557
 30
0.0
 10
708.2887211218756
 20
-269.0958487877389
 30
0.0
 10
708.297862001281
 20
-269.7373014592822
 30
0.0
 10
708.3000758464794
 20
-269.8926559775833
 30
0.0
  0
SPLINE
  5
144
330
1F
100
AcDbEntity
  8
0
  6
Continuous
 62
     7
370
    25
100
AcDbSpline
210
0.0
220
0.0
230
1.0
 70
     8
 71
     3
 72
    22
 73
    18
 74
     0
 42
0.00000001
 43
0.00000001
 40
0.0
 40
0.0
 40
0.0
 40
0.0
 40
0.0362934660826161
 40
0.1059968498303191
 40
0.1759513347606916
 40
0.2461213226811134
 40
0.3164540845392464
 40
0.3868645620045542
 40
0.4572511292761118
 40
0.527490604454068
 40
0.5974864248553775
 40
0.6671576272454584
 40
0.7364816323994382
 40
0.8056017084958156
 40
0.8748537277511589
 40
0.9452202796697946
 40
1.0
 40
1.0
 40
1.0
 40
1.0
 10
708.3000758464794
 20
-269.8926559775833
 30
0.0
 10
708.2944308005988
 20
-270.1502513592652
 30
0.0
 10
708.2779441669123
 20
-270.9025713203006
 30
0.0
 10
708.0911864169269
 20
-272.2493455687682
 30
0.0
 10
707.6703225827467
 20
-273.920160965165
 30
0.0
 10
707.0461801009365
 20
-275.6211657567762
 30
0.0
 10
706.2384036263511
 20
-277.2985707293769
 30
0.0
 10
705.2688439004196
 20
-278.9028635994637
 30
0.0
 10
704.1667880413355
 20
-280.3856730206284
 30
0.0
 10
702.9664845276028
 20
-281.7030380707756
 30
0.0
 10
701.7066066543608
 20
-282.8167881809725
 30
0.0
 10
700.4287223655043
 20
-283.6967927459618
 30
0.0
 10
699.1764445401341
 20
-284.3217427533501
 30
0.0
 10
697.9911619636448
 20
-284.6849252807484
 30
0.0
 10
696.9152296553931
 20
-284.7809782944507
 30
0.0
 10
696.0321922244688
 20
-284.6700744457532
 30
0.0
 10
695.5738705114322
 20
-284.426720495032
 30
0.0
 10
695.3732513894222
 20
-284.3201982541198
 30
0.0
  0
SPLINE
  5
145
330
1F
100
AcDbEntity
  8
0
  6
Continuous
 62
     7
370
    25
100
AcDbSpline
210
0.0
220
0.0
230
1.0
 70
     8
 71
     3
 72
    13
 73
     9
 74
     0
 42
0.00000001
 43
0.00000001
 40
0.0
 40
0.0
 40
0.0
 40
0.0
 40
0.030171831656263
 40
0.2730495324890878
 40
0.4848307094693965
 40
0.7100393803269106
 40
0.9297739421877576
 40
1.0
 40
1.0
 40
1.0
 40
1.0
 10
582.6772224798174
 20
-479.6783575459563
 30
0.0
 10
582.7136090334909
 20
-479.6954861770775
 30
0.0
 10
583.0429006582968
 20
-479.8504971413803
 30
0.0
 10
583.4950822126549
 20
-480.361933868795
 30
0.0
 10
584.0461837945306
 20
-481.2542903452372
 30
0.0
 10
584.4057987466646
 20
-482.3818943929617
 30
0.0
 10
584.5450344142084
 20
-483.4262006522449
 30
0.0
 10
584.5541752936141
 20
-484.067653323788
 30
0.0
 10
584.5563891388125
 20
-484.223007842089
 30
0.0
  0
SPLINE
  5
146
330
1F
100
AcDbEntity
  8
0
  6
Continuous
 62
     7
370
    25
100
AcDbSpline
210
0.0
220
0.0
230
1.0
 70
     8
 71
     3
 72
    22
 73
    18
 74
     0
 42
0.00000001
 43
0.00000001
 40
0.0
 40
0.0
 40
0.0
 40
0.0
 40
0.0362934660826155
 40
0.1059968498303126
 40
0.1759513347606856
 40
0.2461213226811108
 40
0.3164540845392434
 40
0.3868645620045564
 40
0.4572511292761149
 40
0.5274906044540819
 40
0.5974864248553838
 40
0.667157627245463
 40
0.736481632399441
 40
0.8056017084958156
 40
0.8748537277511551
 40
0.9452202796697979
 40
1.0
 40
1.0
 40
1.0
 40
1.0
 10
584.5563891388125
 20
-484.223007842089
 30
0.0
 10
584.5507440929316
 20
-484.480603223771
 30
0.0
 10
584.5342574592454
 20
-485.2329231848063
 30
0.0
 10
584.3474997092599
 20
-486.579697433274
 30
0.0
 10
583.9266358750798
 20
-488.2505128296706
 30
0.0
 10
583.3024933932694
 20
-489.9515176212819
 30
0.0
 10
582.4947169186842
 20
-491.6289225938827
 30
0.0
 10
581.5251571927524
 20
-493.2332154639695
 30
0.0
 10
580.4231013336682
 20
-494.7160248851342
 30
0.0
 10
579.2227978199355
 20
-496.0333899352815
 30
0.0
 10
577.9629199466935
 20
-497.1471400454784
 30
0.0
 10
576.6850356578373
 20
-498.0271446104677
 30
0.0
 10
575.4327578324669
 20
-498.652094617856
 30
0.0
 10
574.2474752559776
 20
-499.0152771452542
 30
0.0
 10
573.1715429477262
 20
-499.1113301589565
 30
0.0
 10
572.2885055168017
 20
-499.0004263102591
 30
0.0
 10
571.8301838037652
 20
-498.7570723595378
 30
0.0
 10
571.629564681755
 20
-498.6505501186256
 30
0.0
  0
SPLINE
  5
147
330
1F
100
AcDbEntity
  8
0
  6
Continuous
 62
     7
370
    25
100
AcDbSpline
210
0.0
220
0.0
230
1.0
 70
     8
 71
     3
 72
    13
 73
     9
 74
     0
 42
0.00000001
 43
0.00000001
 40
0.0
 40
0.0
 40
0.0
 40
0.0
 40
0.0301718316562833
 40
0.2730495324890999
 40
0.4848307094694156
 40
0.7100393803269235
 40
0.929773942187782
 40
1.0
 40
1.0
 40
1.0
 40
1.0
 10
689.8423987266066
 20
-203.471255015186
 30
0.0
 10
689.8787852802801
 20
-203.4883836463073
 30
0.0
 10
690.2080769050863
 20
-203.64339461061
 30
0.0
 10
690.6602584594442
 20
-204.1548313380247
 30
0.0
 10
691.2113600413198
 20
-205.0471878144669
 30
0.0
 10
691.5709749934538
 20
-206.1747918621915
 30
0.0
 10
691.7102106609977
 20
-207.2190981214746
 30
0.0
 10
691.7193515404033
 20
-207.8605507930178
 30
0.0
 10
691.7215653856017
 20
-208.0159053113188
 30
0.0
  0
SPLINE
  5
148
330
1F
100
AcDbEntity
  8
0
  6
Continuous
 62
     7
370
    25
100
AcDbSpline
210
0.0
220
0.0
230
1.0
 70
     8
 71
     3
 72
    22
 73
    18
 74
     0
 42
0.00000001
 43
0.00000001
 40
0.0
 40
0.0
 40
0.0
 40
0.0
 40
0.0362934660826163
 40
0.1059968498303193
 40
0.1759513347606926
 40
0.246121322681114
 40
0.3164540845392464
 40
0.3868645620045595
 40
0.4572511292761213
 40
0.5274906044540794
 40
0.5974864248553896
 40
0.6671576272454726
 40
0.7364816323994537
 40
0.8056017084958299
 40
0.8748537277511703
 40
0.9452202796698087
 40
1.0
 40
1.0
 40
1.0
 40
1.0
 10
691.7215653856017
 20
-208.0159053113188
 30
0.0
 10
691.7159203397209
 20
-208.2735006930006
 30
0.0
 10
691.6994337060346
 20
-209.025820654036
 30
0.0
 10
691.5126759560491
 20
-210.3725949025037
 30
0.0
 10
691.0918121218689
 20
-212.0434102989004
 30
0.0
 10
690.4676696400587
 20
-213.7444150905116
 30
0.0
 10
689.6598931654734
 20
-215.4218200631124
 30
0.0
 10
688.6903334395416
 20
-217.0261129331992
 30
0.0
 10
687.5882775804574
 20
-218.508922354364
 30
0.0
 10
686.3879740667248
 20
-219.8262874045112
 30
0.0
 10
685.1280961934829
 20
-220.9400375147081
 30
0.0
 10
683.8502119046263
 20
-221.8200420796974
 30
0.0
 10
682.5979340792561
 20
-222.4449920870857
 30
0.0
 10
681.4126515027667
 20
-222.8081746144839
 30
0.0
 10
680.3367191945151
 20
-222.9042276281862
 30
0.0
 10
679.4536817635909
 20
-222.7933237794886
 30
0.0
 10
678.9953600505544
 20
-222.5499698287674
 30
0.0
 10
678.7947409285443
 20
-222.4434475878552
 30
0.0
  0
SPLINE
  5
149
330
1F
100
AcDbEntity
  8
0
  6
Continuous
 62
     7
370
    25
100
AcDbSpline
210
0.0
220
0.0
230
1.0
 70
     8
 71
     3
 72
    13
 73
     9
 74
     0
 42
0.00000001
 43
0.00000001
 40
0.0
 40
0.0
 40
0.0
 40
0.0
 40
0.0301718316562823
 40
0.2730495324891353
 40
0.484830709469448
 40
0.7100393803269546
 40
0.9297739421878134
 40
1.0
 40
1.0
 40
1.0
 40
1.0
 10
520.8053791259906
 20
-496.2519604641583
 30
0.0
 10
520.8417656796643
 20
-496.2690890952796
 30
0.0
 10
521.1710573044703
 20
-496.4241000595823
 30
0.0
 10
521.6232388588282
 20
-496.9355367869972
 30
0.0
 10
522.174340440704
 20
-497.8278932634394
 30
0.0
 10
522.5339553928379
 20
-498.9554973111642
 30
0.0
 10
522.6731910603818
 20
-499.9998035704471
 30
0.0
 10
522.6823319397873
 20
-500.6412562419902
 30
0.0
 10
522.6845457849857
 20
-500.796610760291
 30
0.0
  0
SPLINE
  5
14A
330
1F
100
AcDbEntity
  8
0
  6
Continuous
 62
     7
370
    25
100
AcDbSpline
210
0.0
220
0.0
230
1.0
 70
     8
 71
     3
 72
    22
 73
    18
 74
     0
 42
0.00000001
 43
0.00000001
 40
0.0
 40
0.0
 40
0.0
 40
0.0
 40
0.0362934660826157
 40
0.1059968498303078
 40
0.175951334760682
 40
0.2461213226811078
 40
0.3164540845392456
 40
0.3868645620045495
 40
0.4572511292761076
 40
0.5274906044540669
 40
0.5974864248553791
 40
0.6671576272454631
 40
0.7364816323994393
 40
0.8056017084958178
 40
0.8748537277511621
 40
0.9452202796698032
 40
0.9999999999999999
 40
0.9999999999999999
 40
0.9999999999999999
 40
0.9999999999999999
 10
522.6845457849857
 20
-500.796610760291
 30
0.0
 10
522.678900739105
 20
-501.0542061419729
 30
0.0
 10
522.6624141054186
 20
-501.8065261030083
 30
0.0
 10
522.4756563554332
 20
-503.1533003514759
 30
0.0
 10
522.0547925212529
 20
-504.8241157478726
 30
0.0
 10
521.4306500394428
 20
-506.5251205394839
 30
0.0
 10
520.6228735648575
 20
-508.2025255120845
 30
0.0
 10
519.6533138389259
 20
-509.8068183821713
 30
0.0
 10
518.5512579798417
 20
-511.2896278033361
 30
0.0
 10
517.3509544661091
 20
-512.6069928534833
 30
0.0
 10
516.091076592867
 20
-513.7207429636803
 30
0.0
 10
514.8131923040107
 20
-514.6007475286696
 30
0.0
 10
513.5609144786403
 20
-515.225697536058
 30
0.0
 10
512.375631902151
 20
-515.588880063456
 30
0.0
 10
511.2996995938993
 20
-515.6849330771586
 30
0.0
 10
510.416662162975
 20
-515.574029228461
 30
0.0
 10
509.9583404499385
 20
-515.3306752777398
 30
0.0
 10
509.7577213279284
 20
-515.2241530368276
 30
0.0
  0
SPLINE
  5
14B
330
1F
100
AcDbEntity
  8
0
  6
Continuous
 62
     7
370
    25
100
AcDbSpline
210
0.0
220
0.0
230
1.0
 70
     8
 71
     3
 72
    13
 73
     9
 74
     0
 42
0.00000001
 43
0.00000001
 40
0.0
 40
0.0
 40
0.0
 40
0.0
 40
0.0301718316562939
 40
0.2730495324891615
 40
0.4848307094694647
 40
0.7100393803269648
 40
0.9297739421878166
 40
1.0
 40
1.0
 40
1.0
 40
1.0
 10
644.5490658336655
 20
-177.3154704677047
 30
0.0
 10
644.5854523873392
 20
-177.332599098826
 30
0.0
 10
644.9147440121453
 20
-177.4876100631287
 30
0.0
 10
645.3669255665033
 20
-177.9990467905436
 30
0.0
 10
645.918027148379
 20
-178.8914032669859
 30
0.0
 10
646.2776421005128
 20
-180.0190073147105
 30
0.0
 10
646.4168777680567
 20
-181.0633135739935
 30
0.0
 10
646.4260186474623
 20
-181.7047662455365
 30
0.0
 10
646.4282324926606
 20
-181.8601207638374
 30
0.0
  0
SPLINE
  5
14C
330
1F
100
AcDbEntity
  8
0
  6
Continuous
 62
     7
370
    25
100
AcDbSpline
210
0.0
220
0.0
230
1.0
 70
     8
 71
     3
 72
    22
 73
    18
 74
     0
 42
0.00000001
 43
0.00000001
 40
0.0
 40
0.0
 40
0.0
 40
0.0
 40
0.0362934660826157
 40
0.1059968498303077
 40
0.1759513347606819
 40
0.2461213226811077
 40
0.3164540845392455
 40
0.3868645620045493
 40
0.4572511292761074
 40
0.5274906044540667
 40
0.5974864248553788
 40
0.6671576272454629
 40
0.736481632399439
 40
0.8056017084958176
 40
0.8748537277511618
 40
0.9452202796698028
 40
0.9999999999999999
 40
0.9999999999999999
 40
0.9999999999999999
 40
0.9999999999999999
 10
646.4282324926606
 20
-181.8601207638374
 30
0.0
 10
646.42258744678
 20
-182.1177161455193
 30
0.0
 10
646.4061008130935
 20
-182.8700361065546
 30
0.0
 10
646.2193430631081
 20
-184.2168103550221
 30
0.0
 10
645.7984792289279
 20
-185.8876257514189
 30
0.0
 10
645.1743367471178
 20
-187.5886305430302
 30
0.0
 10
644.3665602725324
 20
-189.266035515631
 30
0.0
 10
643.3970005466008
 20
-190.8703283857178
 30
0.0
 10
642.2949446875167
 20
-192.3531378068824
 30
0.0
 10
641.094641173784
 20
-193.6705028570298
 30
0.0
 10
639.834763300542
 20
-194.7842529672266
 30
0.0
 10
638.5568790116855
 20
-195.6642575322161
 30
0.0
 10
637.3046011863152
 20
-196.2892075396043
 30
0.0
 10
636.119318609826
 20
-196.6523900670025
 30
0.0
 10
635.0433863015742
 20
-196.7484430807049
 30
0.0
 10
634.1603488706498
 20
-196.6375392320074
 30
0.0
 10
633.7020271576133
 20
-196.3941852812861
 30
0.0
 10
633.5014080356033
 20
-196.2876630403739
 30
0.0
  0
SPLINE
  5
14D
330
1F
100
AcDbEntity
  8
0
  6
Continuous
 62
     7
370
    25
100
AcDbSpline
210
0.0
220
0.0
230
1.0
 70
     8
 71
     3
 72
    13
 73
     9
 74
     0
 42
0.00000001
 43
0.00000001
 40
0.0
 40
0.0
 40
0.0
 40
0.0
 40
0.0301718316562308
 40
0.2730495324890876
 40
0.4848307094693869
 40
0.7100393803268953
 40
0.9297739421877558
 40
1.0
 40
1.0
 40
1.0
 40
1.0
 10
475.5120462330495
 20
-470.0961759166771
 30
0.0
 10
475.5484327867231
 20
-470.1133045477982
 30
0.0
 10
475.8777244115291
 20
-470.268315512101
 30
0.0
 10
476.329905965887
 20
-470.7797522395158
 30
0.0
 10
476.8810075477629
 20
-471.6721087159578
 30
0.0
 10
477.2406224998967
 20
-472.7997127636825
 30
0.0
 10
477.3798581674407
 20
-473.8440190229656
 30
0.0
 10
477.3889990468463
 20
-474.4854716945086
 30
0.0
 10
477.3912128920447
 20
-474.6408262128098
 30
0.0
  0
SPLINE
  5
14E
330
1F
100
AcDbEntity
  8
0
  6
Continuous
 62
     7
370
    25
100
AcDbSpline
210
0.0
220
0.0
230
1.0
 70
     8
 71
     3
 72
    22
 73
    18
 74
     0
 42
0.00000001
 43
0.00000001
 40
0.0
 40
0.0
 40
0.0
 40
0.0
 40
0.0362934660826163
 40
0.1059968498303192
 40
0.1759513347606926
 40
0.2461213226811139
 40
0.3164540845392463
 40
0.3868645620045593
 40
0.4572511292761211
 40
0.5274906044540791
 40
0.5974864248553894
 40
0.6671576272454723
 40
0.7364816323994535
 40
0.8056017084958296
 40
0.87485372775117
 40
0.9452202796698084
 40
1.0
 40
1.0
 40
1.0
 40
1.0
 10
477.3912128920447
 20
-474.6408262128098
 30
0.0
 10
477.3855678461639
 20
-474.8984215944917
 30
0.0
 10
477.3690812124776
 20
-475.6507415555271
 30
0.0
 10
477.182323462492
 20
-476.9975158039948
 30
0.0
 10
476.7614596283119
 20
-478.6683312003914
 30
0.0
 10
476.1373171465016
 20
-480.3693359920027
 30
0.0
 10
475.3295406719163
 20
-482.0467409646034
 30
0.0
 10
474.3599809459847
 20
-483.6510338346903
 30
0.0
 10
473.2579250869005
 20
-485.133843255855
 30
0.0
 10
472.0576215731678
 20
-486.4512083060023
 30
0.0
 10
470.7977436999258
 20
-487.5649584161991
 30
0.0
 10
469.5198594110693
 20
-488.4449629811884
 30
0.0
 10
468.267581585699
 20
-489.0699129885767
 30
0.0
 10
467.0822990092097
 20
-489.4330955159749
 30
0.0
 10
466.0063667009582
 20
-489.5291485296772
 30
0.0
 10
465.1233292700339
 20
-489.4182446809797
 30
0.0
 10
464.6650075569974
 20
-489.1748907302584
 30
0.0
 10
464.4643884349873
 20
-489.0683684893463
 30
0.0
  0
SPLINE
  5
14F
330
1F
100
AcDbEntity
  8
0
  6
Continuous
 62
     7
370
    25
100
AcDbSpline
210
0.0
220
0.0
230
1.0
 70
     8
 71
     3
 72
    13
 73
     9
 74
     0
 42
0.00000001
 43
0.00000001
 40
0.0
 40
0.0
 40
0.0
 40
0.0
 40
0.0301718316562739
 40
0.2730495324891467
 40
0.4848307094694602
 40
0.7100393803269729
 40
0.9297739421878235
 40
1.0
 40
1.0
 40
1.0
 40
1.0
 10
582.6772224798387
 20
-193.8890733859067
 30
0.0
 10
582.7136090335124
 20
-193.9062020170279
 30
0.0
 10
583.0429006583184
 20
-194.0612129813308
 30
0.0
 10
583.4950822126764
 20
-194.5726497087455
 30
0.0
 10
584.0461837945522
 20
-195.4650061851877
 30
0.0
 10
584.4057987466861
 20
-196.5926102329125
 30
0.0
 10
584.54503441423
 20
-197.6369164921954
 30
0.0
 10
584.5541752936355
 20
-198.2783691637385
 30
0.0
 10
584.5563891388339
 20
-198.4337236820395
 30
0.0
  0
SPLINE
  5
150
330
1F
100
AcDbEntity
  8
0
  6
Continuous
 62
     7
370
    25
100
AcDbSpline
210
0.0
220
0.0
230
1.0
 70
     8
 71
     3
 72
    22
 73
    18
 74
     0
 42
0.00000001
 43
0.00000001
 40
0.0
 40
0.0
 40
0.0
 40
0.0
 40
0.0362934660826155
 40
0.1059968498303126
 40
0.1759513347606855
 40
0.2461213226811107
 40
0.3164540845392433
 40
0.3868645620045564
 40
0.4572511292761152
 40
0.5274906044540822
 40
0.5974864248553845
 40
0.6671576272454636
 40
0.7364816323994415
 40
0.805601708495822
 40
0.8748537277511679
 40
0.9452202796698098
 40
1.0
 40
1.0
 40
1.0
 40
1.0
 10
584.5563891388339
 20
-198.4337236820395
 30
0.0
 10
584.5507440929532
 20
-198.6913190637213
 30
0.0
 10
584.5342574592668
 20
-199.4436390247566
 30
0.0
 10
584.3474997092814
 20
-200.7904132732243
 30
0.0
 10
583.9266358751012
 20
-202.461228669621
 30
0.0
 10
583.3024933932909
 20
-204.1622334612323
 30
0.0
 10
582.4947169187055
 20
-205.839638433833
 30
0.0
 10
581.525157192774
 20
-207.44393130392
 30
0.0
 10
580.4231013336897
 20
-208.9267407250846
 30
0.0
 10
579.222797819957
 20
-210.244105775232
 30
0.0
 10
577.962919946715
 20
-211.3578558854288
 30
0.0
 10
576.6850356578586
 20
-212.2378604504181
 30
0.0
 10
575.4327578324884
 20
-212.8628104578063
 30
0.0
 10
574.247475255999
 20
-213.2259929852046
 30
0.0
 10
573.1715429477473
 20
-213.3220459989069
 30
0.0
 10
572.288505516823
 20
-213.2111421502094
 30
0.0
 10
571.8301838037866
 20
-212.9677881994881
 30
0.0
 10
571.6295646817765
 20
-212.8612659585759
 30
0.0
  0
SPLINE
  5
151
330
1F
100
AcDbEntity
  8
0
  6
Continuous
 62
     7
370
    25
100
AcDbSpline
210
0.0
220
0.0
230
1.0
 70
     8
 71
     3
 72
    13
 73
     9
 74
     0
 42
0.00000001
 43
0.00000001
 40
0.0
 40
0.0
 40
0.0
 40
0.0
 40
0.0301718316563544
 40
0.2730495324892197
 40
0.4848307094695262
 40
0.7100393803270267
 40
0.9297739421878828
 40
1.0
 40
1.0
 40
1.0
 40
1.0
 10
458.9335357721716
 20
-408.2194252504125
 30
0.0
 10
458.9699223258454
 20
-408.2365538815338
 30
0.0
 10
459.2992139506516
 20
-408.3915648458367
 30
0.0
 10
459.7513955050096
 20
-408.9030015732516
 30
0.0
 10
460.3024970868853
 20
-409.7953580496939
 30
0.0
 10
460.6621120390191
 20
-410.9229620974186
 30
0.0
 10
460.8013477065628
 20
-411.9672683567015
 30
0.0
 10
460.8104885859685
 20
-412.6087210282444
 30
0.0
 10
460.8127024311669
 20
-412.7640755465453
 30
0.0
  0
SPLINE
  5
152
330
1F
100
AcDbEntity
  8
0
  6
Continuous
 62
     7
370
    25
100
AcDbSpline
210
0.0
220
0.0
230
1.0
 70
     8
 71
     3
 72
    22
 73
    18
 74
     0
 42
0.00000001
 43
0.00000001
 40
0.0
 40
0.0
 40
0.0
 40
0.0
 40
0.036293466082616
 40
0.1059968498303415
 40
0.1759513347607058
 40
0.2461213226811244
 40
0.3164540845392612
 40
0.3868645620045706
 40
0.457251129276128
 40
0.5274906044540885
 40
0.5974864248553957
 40
0.667157627245476
 40
0.7364816323994547
 40
0.8056017084958327
 40
0.8748537277511769
 40
0.9452202796698153
 40
1.0
 40
1.0
 40
1.0
 40
1.0
 10
460.8127024311669
 20
-412.7640755465453
 30
0.0
 10
460.807057385286
 20
-413.0216709282271
 30
0.0
 10
460.7905707515997
 20
-413.7739908892626
 30
0.0
 10
460.6038130016142
 20
-415.1207651377304
 30
0.0
 10
460.1829491674339
 20
-416.7915805341273
 30
0.0
 10
459.5588066856237
 20
-418.4925853257384
 30
0.0
 10
458.7510302110384
 20
-420.1699902983393
 30
0.0
 10
457.7814704851066
 20
-421.774283168426
 30
0.0
 10
456.6794146260224
 20
-423.2570925895907
 30
0.0
 10
455.4791111122898
 20
-424.5744576397379
 30
0.0
 10
454.2192332390478
 20
-425.6882077499346
 30
0.0
 10
452.9413489501914
 20
-426.568212314924
 30
0.0
 10
451.6890711248211
 20
-427.1931623223123
 30
0.0
 10
450.5037885483317
 20
-427.5563448497104
 30
0.0
 10
449.4278562400802
 20
-427.6523978634127
 30
0.0
 10
448.544818809156
 20
-427.5414940147151
 30
0.0
 10
448.0864970961194
 20
-427.2981400639939
 30
0.0
 10
447.8858779741094
 20
-427.1916178230817
 30
0.0
  0
SPLINE
  5
153
330
1F
100
AcDbEntity
  8
0
  6
Continuous
 62
     7
370
    25
100
AcDbSpline
210
0.0
220
0.0
230
1.0
 70
     8
 71
     3
 72
    13
 73
     9
 74
     0
 42
0.00000001
 43
0.00000001
 40
0.0
 40
0.0
 40
0.0
 40
0.0
 40
0.0301718316561505
 40
0.2730495324890103
 40
0.4848307094693131
 40
0.7100393803268183
 40
0.9297739421876787
 40
1.0
 40
1.0
 40
1.0
 40
1.0
 10
520.8053791260091
 20
-248.7511802521857
 30
0.0
 10
520.8417656796827
 20
-248.7683088833068
 30
0.0
 10
521.1710573044884
 20
-248.9233198476095
 30
0.0
 10
521.6232388588464
 20
-249.4347565750242
 30
0.0
 10
522.1743404407223
 20
-250.3271130514661
 30
0.0
 10
522.5339553928562
 20
-251.4547170991907
 30
0.0
 10
522.6731910604002
 20
-252.4990233584739
 30
0.0
 10
522.6823319398059
 20
-253.1404760300172
 30
0.0
 10
522.6845457850043
 20
-253.2958305483185
 30
0.0
  0
SPLINE
  5
154
330
1F
100
AcDbEntity
  8
0
  6
Continuous
 62
     7
370
    25
100
AcDbSpline
210
0.0
220
0.0
230
1.0
 70
     8
 71
     3
 72
    22
 73
    18
 74
     0
 42
0.00000001
 43
0.00000001
 40
0.0
 40
0.0
 40
0.0
 40
0.0
 40
0.0362934660826154
 40
0.1059968498303068
 40
0.1759513347606803
 40
0.2461213226811057
 40
0.3164540845392399
 40
0.3868645620045464
 40
0.4572511292760977
 40
0.5274906044540641
 40
0.5974864248553716
 40
0.6671576272454435
 40
0.7364816323994265
 40
0.8056017084957992
 40
0.8748537277511442
 40
0.9452202796697858
 40
1.0
 40
1.0
 40
1.0
 40
1.0
 10
522.6845457850043
 20
-253.2958305483185
 30
0.0
 10
522.6789007391235
 20
-253.5534259300003
 30
0.0
 10
522.6624141054372
 20
-254.3057458910357
 30
0.0
 10
522.4756563554516
 20
-255.6525201395032
 30
0.0
 10
522.0547925212716
 20
-257.3233355358999
 30
0.0
 10
521.4306500394613
 20
-259.0243403275112
 30
0.0
 10
520.6228735648759
 20
-260.701745300112
 30
0.0
 10
519.6533138389444
 20
-262.3060381701987
 30
0.0
 10
518.5512579798602
 20
-263.7888475913634
 30
0.0
 10
517.3509544661276
 20
-265.1062126415108
 30
0.0
 10
516.0910765928855
 20
-266.2199627517076
 30
0.0
 10
514.8131923040293
 20
-267.099967316697
 30
0.0
 10
513.5609144786589
 20
-267.7249173240853
 30
0.0
 10
512.3756319021696
 20
-268.0880998514835
 30
0.0
 10
511.299699593918
 20
-268.184152865186
 30
0.0
 10
510.4166621629935
 20
-268.0732490164884
 30
0.0
 10
509.9583404499569
 20
-267.8298950657672
 30
0.0
 10
509.7577213279467
 20
-267.7233728248549
 30
0.0
  0
SPLINE
  5
155
330
1F
100
AcDbEntity
  8
0
  6
Continuous
 62
     7
370
    25
100
AcDbSpline
210
0.0
220
0.0
230
1.0
 70
     8
 71
     3
 72
    13
 73
     9
 74
     0
 42
0.00000001
 43
0.00000001
 40
0.0
 40
0.0
 40
0.0
 40
0.0
 40
0.0301718316562764
 40
0.2730495324891407
 40
0.4848307094694596
 40
0.7100393803269955
 40
0.9297739421878267
 40
1.0
 40
1.0
 40
1.0
 40
1.0
 10
475.5120462330602
 20
-327.2015338366523
 30
0.0
 10
475.5484327867339
 20
-327.2186624677735
 30
0.0
 10
475.8777244115399
 20
-327.3736734320764
 30
0.0
 10
476.3299059658979
 20
-327.8851101594911
 30
0.0
 10
476.8810075477737
 20
-328.7774666359334
 30
0.0
 10
477.2406224999075
 20
-329.9050706836582
 30
0.0
 10
477.3798581674514
 20
-330.9493769429411
 30
0.0
 10
477.388999046857
 20
-331.5908296144841
 30
0.0
 10
477.3912128920553
 20
-331.7461841327851
 30
0.0
  0
SPLINE
  5
156
330
1F
100
AcDbEntity
  8
0
  6
Continuous
 62
     7
370
    25
100
AcDbSpline
210
0.0
220
0.0
230
1.0
 70
     8
 71
     3
 72
    22
 73
    18
 74
     0
 42
0.00000001
 43
0.00000001
 40
0.0
 40
0.0
 40
0.0
 40
0.0
 40
0.036293466082616
 40
0.1059968498303411
 40
0.1759513347607058
 40
0.2461213226811247
 40
0.316454084539262
 40
0.3868645620045649
 40
0.4572511292761192
 40
0.5274906044540787
 40
0.5974864248553896
 40
0.6671576272454678
 40
0.7364816323994484
 40
0.8056017084958249
 40
0.8748537277511674
 40
0.945220279669804
 40
1.0
 40
1.0
 40
1.0
 40
1.0
 10
477.3912128920553
 20
-331.7461841327851
 30
0.0
 10
477.3855678461746
 20
-332.0037795144669
 30
0.0
 10
477.3690812124882
 20
-332.7560994755024
 30
0.0
 10
477.1823234625027
 20
-334.1028737239703
 30
0.0
 10
476.7614596283224
 20
-335.7736891203671
 30
0.0
 10
476.1373171465122
 20
-337.4746939119783
 30
0.0
 10
475.3295406719268
 20
-339.1520988845791
 30
0.0
 10
474.3599809459952
 20
-340.7563917546657
 30
0.0
 10
473.2579250869111
 20
-342.2392011758303
 30
0.0
 10
472.0576215731784
 20
-343.5565662259776
 30
0.0
 10
470.7977436999364
 20
-344.6703163361744
 30
0.0
 10
469.51985941108
 20
-345.5503209011637
 30
0.0
 10
468.2675815857097
 20
-346.175270908552
 30
0.0
 10
467.0822990092204
 20
-346.5384534359502
 30
0.0
 10
466.0063667009687
 20
-346.6345064496525
 30
0.0
 10
465.1233292700445
 20
-346.523602600955
 30
0.0
 10
464.665007557008
 20
-346.2802486502338
 30
0.0
 10
464.4643884349979
 20
-346.1737264093215
 30
0.0
  0
LWPOLYLINE
  5
157
330
1F
100
AcDbEntity
  8
0
  6
Continuous
 62
     7
370
    25
100
AcDbPolyline
 90
      149
 70
   128
 43
0.0
 10
715.3104834866
 20
-265.6065133905
 10
715.1852880101
 20
-258.8690847084
 10
714.8099271914
 20
-252.2883449486
 10
714.185077456
 20
-245.8761530488
 10
713.3118648254
 20
-239.6440642124
 10
712.1918628877
 20
-233.6033090845
 10
710.8270899622
 20
-227.7647735142
 10
709.220005462
 20
-222.1389789374
 10
707.3735054618
 20
-216.7360634159
 10
705.2909174795
 20
-211.5657633689
 10
702.9759944795
 20
-206.6373960263
 10
700.4329081094
 20
-201.9598426394
 10
697.6662411828
 20
-197.5415324755
 10
694.6809794204
 20
-193.3904276281
 10
691.4825024658
 20
-189.5140086687
 10
688.0765741905
 20
-185.9192611663
 10
684.4693323076
 20
-182.6126630989
 10
680.6672773108
 20
-179.6001731797
 10
676.6772607601
 20
-176.8872201192
 10
672.5064729351
 20
-174.478692842
 10
668.1624298772
 20
-172.3789316773
 10
663.6529598458
 20
-170.5917205364
 10
658.9861892106
 20
-169.1202800947
 10
654.1705278077
 20
-167.9672619874
 10
649.2146537845
 20
-167.1347440309
 10
644.1274979609
 20
-166.624226479
 10
638.9182277356
 20
-166.4366293187
 10
633.5962305656
 20
-166.5722906128
 10
628.1710970495
 20
-167.0309658905
 10
622.6526036446
 20
-167.8118285879
 10
617.0506950491
 20
-168.9134715377
 10
611.3754662808
 20
-170.3339095048
 10
605.6371444856
 20
-172.0705827641
 10
599.8460705073
 20
-174.1203617128
 10
594.0126802525
 20
-176.4795525108
 10
588.1474858847
 20
-179.1439037368
 10
582.2610568807
 20
-182.1086140498
 10
576.3640009834
 20
-185.3683408415
 10
570.4669450861
 20
-188.9172098638
 10
564.5805160821
 20
-192.7488258149
 10
558.7153217144
 20
-196.8562838639
 10
552.8819314595
 20
-201.2321820937
 10
547.0908574812
 20
-205.86863484
 10
541.352535686
 20
-210.7572869015
 10
535.6773069177
 20
-215.8893285967
 10
530.0753983222
 20
-221.2555116398
 10
524.5569049173
 20
-226.8461658061
 10
519.1317714012
 20
-232.6512163589
 10
513.8097742312
 20
-238.6602022047
 10
508.6005040059
 20
-244.8622947451
 10
503.5133481823
 20
-251.2463173899
 10
498.5574741591
 20
-257.8007656988
 10
493.7418127562
 20
-264.513828113
 10
489.075042121
 20
-271.3734072404
 10
484.5655720896
 20
-278.3671416555
 10
480.2215290318
 20
-285.4824281764
 10
476.0507412067
 20
-292.7064445758
 10
472.060724656
 20
-300.0261726879
 10
468.2586696592
 20
-307.4284218678
 10
464.6514277763
 20
-314.8998527622
 10
461.2454995011
 20
-322.4270013476
 10
458.0470225464
 20
-329.9963031936
 10
455.061760784
 20
-337.5941179066
 10
452.2950938574
 20
-345.2067537109
 10
449.7520074873
 20
-352.8204921222
 10
447.4370844873
 20
-360.4216126694
 10
445.354496505
 20
-367.9964176195
 10
443.5079965049
 20
-375.5312566619
 10
441.9009120046
 20
-383.0125515073
 10
440.5361390791
 20
-390.4268203569
 10
439.4161371414
 20
-397.760702197
 10
438.5429245108
 20
-405.0009808769
 10
437.9180747754
 20
-412.1346089249
 10
437.5427139567
 20
-419.1487310612
 10
437.4175184803
 20
-426.0307073637
 10
437.5427139567
 20
-432.7681360457
 10
437.9180747754
 20
-439.3488758055
 10
438.5429245108
 20
-445.7610677053
 10
439.4161371414
 20
-451.9931565418
 10
440.5361390791
 20
-458.0339116697
 10
441.9009120046
 20
-463.8724472399
 10
443.5079965049
 20
-469.4982418168
 10
445.354496505
 20
-474.9011573382
 10
447.4370844873
 20
-480.0714573853
 10
449.7520074873
 20
-484.9998247278
 10
452.2950938574
 20
-489.6773781147
 10
455.0617607841
 20
-494.0956882786
 10
458.0470225464
 20
-498.246793126
 10
461.2454995011
 20
-502.1232120854
 10
464.6514277763
 20
-505.7179595878
 10
468.2586696592
 20
-509.0245576552
 10
472.060724656
 20
-512.0370475744
 10
476.0507412067
 20
-514.750000635
 10
480.2215290318
 20
-517.1585279121
 10
484.5655720896
 20
-519.2582890769
 10
489.075042121
 20
-521.0455002177
 10
493.7418127563
 20
-522.5169406594
 10
498.5574741591
 20
-523.6699587668
 10
503.5133481823
 20
-524.5024767232
 10
508.6005040059
 20
-525.0129942752
 10
513.8097742312
 20
-525.2005914355
 10
519.1317714012
 20
-525.0649301414
 10
524.5569049173
 20
-524.6062548637
 10
530.0753983222
 20
-523.8253921662
 10
535.6773069177
 20
-522.7237492164
 10
541.352535686
 20
-521.3033112493
 10
547.0908574812
 20
-519.5666379901
 10
552.8819314595
 20
-517.5168590414
 10
558.7153217144
 20
-515.1576682433
 10
564.5805160821
 20
-512.4933170173
 10
570.4669450861
 20
-509.5286067043
 10
576.3640009834
 20
-506.2688799126
 10
582.2610568807
 20
-502.7200108903
 10
588.1474858847
 20
-498.8883949392
 10
594.0126802525
 20
-494.7809368902
 10
599.8460705073
 20
-490.4050386604
 10
605.6371444856
 20
-485.7685859142
 10
611.3754662808
 20
-480.8799338527
 10
617.0506950491
 20
-475.7478921574
 10
622.6526036446
 20
-470.3817091144
 10
628.1710970495
 20
-464.7910549481
 10
633.5962305656
 20
-458.9860043953
 10
638.9182277356
 20
-452.9770185494
 10
644.1274979609
 20
-446.7749260091
 10
649.2146537845
 20
-440.3909033643
 10
654.1705278077
 20
-433.8364550553
 10
658.9861892106
 20
-427.1233926411
 10
663.6529598458
 20
-420.2638135138
 10
668.1624298772
 20
-413.2700790986
 10
672.5064729351
 20
-406.1547925777
 10
676.6772607601
 20
-398.9307761783
 10
680.6672773108
 20
-391.6110480663
 10
684.4693323076
 20
-384.2087988864
 10
688.0765741905
 20
-376.7373679919
 10
691.4825024658
 20
-369.2102194065
 10
694.6809794204
 20
-361.6409175605
 10
697.6662411828
 20
-354.0431028476
 10
700.4329081094
 20
-346.4304670433
 10
702.9759944795
 20
-338.8167286319
 10
705.2909174795
 20
-331.2156080847
 10
707.3735054618
 20
-323.6408031347
 10
709.220005462
 20
-316.1059640923
 10
710.8270899622
 20
-308.6246692468
 10
712.1918628877
 20
-301.2104003972
 10
713.3118648254
 20
-293.8765185571
 10
714.185077456
 20
-286.6362398773
 10
714.8099271914
 20
-279.5026118292
 10
715.1852880101
 20
-272.4884896929
 10
715.3104834866
 20
-265.6065133905
  0
ARC
  5
158
330
1F
100
AcDbEntity
  8
0
  6
Continuous
 62
     7
370
    25
100
AcDbCircle
 10
512.7281509646
 20
-457.6854186368
 30
0.0
 40
68.73891326029013
100
AcDbArc
 50
214.033079791
 51
266.0143056535
  0
ARC
  5
159
330
1F
100
AcDbEntity
  8
0
  6
Continuous
 62
     7
370
    25
100
AcDbCircle
 10
641.5008347122
 20
-234.6014900643
 30
0.0
 40
68.56637490004638
100
AcDbArc
 50
34.5050331733
 51
86.0605917471
  0
ARC
  5
15A
330
1F
100
AcDbEntity
  8
0
  6
Continuous
 62
     7
370
    25
100
AcDbCircle
 10
660.4652611035
 20
-246.7914595648
 30
0.0
 40
69.69132246100457
100
AcDbArc
 50
34.0525938735
 51
59.7136975225
  0
ARC
  5
15B
330
1F
100
AcDbEntity
  8
0
  6
Continuous
 62
     7
370
    25
100
AcDbCircle
 10
532.939867698
 20
-467.268538398
 30
0.0
 40
70.6103875585342
100
AcDbArc
 50
240.4612773102
 51
265.7952549812
  0
LWPOLYLINE
  5
15C
330
1F
100
AcDbEntity
  8
0
  6
Continuous
 62
     7
370
    25
100
AcDbPolyline
 90
       37
 70
   128
 43
0.0
 10
477.6841061109
 20
-331.3379800769
 10
477.5551956205
 20
-333.1138884066
 10
477.1723810293
 20
-334.9846735446
 10
476.547293965
 20
-336.893492631
 10
475.6989273817
 20
-338.7823471637
 10
474.6530584687
 20
-340.5938452537
 10
473.4414654237
 20
-342.2729454482
 10
472.1009618884
 20
-343.7686291373
 10
470.6722783843
 20
-345.0354507291
 10
469.1988247366
 20
-346.0349184904
 10
467.725371089
 20
-346.7366640993
 10
466.2966875849
 20
-347.1193653703
 10
464.9561840495
 20
-347.1713941191
 10
463.7445910046
 20
-346.8911694785
 10
462.6987220916
 20
-346.2872059323
 10
461.8503555083
 20
-345.3778546073
 10
461.225268444
 20
-344.1907456833
 10
460.8424538528
 20
-342.7619488644
 10
460.7135433624
 20
-341.1348774187
 10
460.8424538528
 20
-339.358969089
 10
461.225268444
 20
-337.488183951
 10
461.8503555083
 20
-335.5793648647
 10
462.6987220916
 20
-333.6905103319
 10
463.7445910046
 20
-331.8790122419
 10
464.9561840495
 20
-330.1999120474
 10
466.2966875849
 20
-328.7042283583
 10
467.725371089
 20
-327.4374067666
 10
469.1988247366
 20
-326.4379390052
 10
470.6722783843
 20
-325.7361933964
 10
472.1009618884
 20
-325.3534921253
 10
473.4414654237
 20
-325.3014633765
 10
474.6530584687
 20
-325.5816880171
 10
475.6989273817
 20
-326.1856515633
 10
476.547293965
 20
-327.0950028883
 10
477.1723810293
 20
-328.2821118123
 10
477.5551956205
 20
-329.7109086312
 10
477.6841061109
 20
-331.3379800769
  0
LWPOLYLINE
  5
15D
330
1F
100
AcDbEntity
  8
0
  6
Continuous
 62
     7
370
    25
100
AcDbPolyline
 90
       37
 70
   128
 43
0.0
 10
477.6841061109
 20
-474.2326221569
 10
477.5551956205
 20
-476.0085304867
 10
477.1723810293
 20
-477.8793156246
 10
476.547293965
 20
-479.788134711
 10
475.6989273817
 20
-481.6769892438
 10
474.6530584687
 20
-483.4884873338
 10
473.4414654237
 20
-485.1675875282
 10
472.1009618884
 20
-486.6632712173
 10
470.6722783842
 20
-487.9300928091
 10
469.1988247366
 20
-488.9295605705
 10
467.725371089
 20
-489.6313061793
 10
466.2966875848
 20
-490.0140074503
 10
464.9561840495
 20
-490.0660361991
 10
463.7445910046
 20
-489.7858115585
 10
462.6987220916
 20
-489.1818480123
 10
461.8503555083
 20
-488.2724966873
 10
461.225268444
 20
-487.0853877634
 10
460.8424538528
 20
-485.6565909444
 10
460.7135433624
 20
-484.0295194988
 10
460.8424538528
 20
-482.253611169
 10
461.225268444
 20
-480.3828260311
 10
461.8503555083
 20
-478.4740069447
 10
462.6987220916
 20
-476.5851524119
 10
463.7445910046
 20
-474.7736543219
 10
464.9561840495
 20
-473.0945541275
 10
466.2966875848
 20
-471.5988704383
 10
467.725371089
 20
-470.3320488466
 10
469.1988247366
 20
-469.3325810852
 10
470.6722783842
 20
-468.6308354764
 10
472.1009618884
 20
-468.2481342053
 10
473.4414654237
 20
-468.1961054565
 10
474.6530584687
 20
-468.4763300972
 10
475.6989273817
 20
-469.0802936434
 10
476.547293965
 20
-469.9896449684
 10
477.1723810293
 20
-471.1767538923
 10
477.5551956205
 20
-472.6055507113
 10
477.6841061109
 20
-474.2326221569
  0
LWPOLYLINE
  5
15E
330
1F
100
AcDbEntity
  8
0
  6
Continuous
 62
     7
370
    25
100
AcDbPolyline
 90
       37
 70
   128
 43
0.0
 10
584.8492823576
 20
-483.8148037862
 10
584.7203718672
 20
-485.5907121159
 10
584.3375572761
 20
-487.4614972539
 10
583.7124702117
 20
-489.3703163403
 10
582.8641036284
 20
-491.259170873
 10
581.8182347155
 20
-493.070668963
 10
580.6066416705
 20
-494.7497691575
 10
579.2661381352
 20
-496.2454528466
 10
577.837454631
 20
-497.5122744384
 10
576.3640009834
 20
-498.5117421997
 10
574.8905473358
 20
-499.2134878086
 10
573.4618638316
 20
-499.5961890796
 10
572.1213602963
 20
-499.6482178284
 10
570.9097672513
 20
-499.3679931878
 10
569.8638983384
 20
-498.7640296416
 10
569.015531755
 20
-497.8546783166
 10
568.3904446907
 20
-496.6675693926
 10
568.0076300995
 20
-495.2387725737
 10
567.8787196091
 20
-493.6117011281
 10
568.0076300995
 20
-491.8357927983
 10
568.3904446907
 20
-489.9650076603
 10
569.015531755
 20
-488.056188574
 10
569.8638983384
 20
-486.1673340412
 10
570.9097672513
 20
-484.3558359512
 10
572.1213602963
 20
-482.6767357567
 10
573.4618638316
 20
-481.1810520676
 10
574.8905473358
 20
-479.9142304759
 10
576.3640009834
 20
-478.9147627145
 10
577.837454631
 20
-478.2130171057
 10
579.2661381352
 20
-477.8303158346
 10
580.6066416705
 20
-477.7782870858
 10
581.8182347155
 20
-478.0585117265
 10
582.8641036284
 20
-478.6624752726
 10
583.7124702117
 20
-479.5718265976
 10
584.3375572761
 20
-480.7589355216
 10
584.7203718672
 20
-482.1877323405
 10
584.8492823576
 20
-483.8148037862
  0
LWPOLYLINE
  5
15F
330
1F
100
AcDbEntity
  8
0
  6
Continuous
 62
     7
370
    25
100
AcDbPolyline
 90
       37
 70
   128
 43
0.0
 10
708.5929690653
 20
-269.4844519217
 10
708.4640585749
 20
-271.2603602514
 10
708.0812439837
 20
-273.1311453894
 10
707.4561569194
 20
-275.0399644758
 10
706.6077903361
 20
-276.9288190085
 10
705.5619214231
 20
-278.7403170985
 10
704.3503283782
 20
-280.419417293
 10
703.0098248428
 20
-281.9151009821
 10
701.5811413387
 20
-283.1819225739
 10
700.1076876911
 20
-284.1813903352
 10
698.6342340434
 20
-284.8831359441
 10
697.2055505393
 20
-285.2658372151
 10
695.8650470039
 20
-285.3178659639
 10
694.653453959
 20
-285.0376413233
 10
693.607585046
 20
-284.4336777771
 10
692.7592184627
 20
-283.5243264521
 10
692.1341313984
 20
-282.3372175281
 10
691.7513168072
 20
-280.9084207092
 10
691.6224063168
 20
-279.2813492635
 10
691.7513168072
 20
-277.5054409338
 10
692.1341313984
 20
-275.6346557958
 10
692.7592184627
 20
-273.7258367095
 10
693.607585046
 20
-271.8369821767
 10
694.653453959
 20
-270.0254840867
 10
695.8650470039
 20
-268.3463838922
 10
697.2055505393
 20
-266.8507002031
 10
698.6342340434
 20
-265.5838786114
 10
700.1076876911
 20
-264.58441085
 10
701.5811413387
 20
-263.8826652412
 10
703.0098248428
 20
-263.4999639701
 10
704.3503283782
 20
-263.4479352213
 10
705.5619214231
 20
-263.7281598619
 10
706.6077903361
 20
-264.3321234081
 10
707.4561569194
 20
-265.2414747331
 10
708.0812439837
 20
-266.4285836571
 10
708.4640585749
 20
-267.857380476
 10
708.5929690653
 20
-269.4844519217
  0
LWPOLYLINE
  5
160
330
1F
100
AcDbEntity
  8
0
  6
Continuous
 62
     7
370
    25
100
AcDbPolyline
 90
       37
 70
   128
 43
0.0
 10
646.7211257115
 20
-181.4519167079
 10
646.5922152211
 20
-183.2278250377
 10
646.2094006299
 20
-185.0986101756
 10
645.5843135656
 20
-187.007429262
 10
644.7359469823
 20
-188.8962837948
 10
643.6900780693
 20
-190.7077818848
 10
642.4784850244
 20
-192.3868820792
 10
641.137981489
 20
-193.8825657684
 10
639.7092979849
 20
-195.1493873601
 10
638.2358443372
 20
-196.1488551215
 10
636.7623906896
 20
-196.8506007303
 10
635.3337071855
 20
-197.2333020014
 10
633.9932036501
 20
-197.2853307502
 10
632.7816106052
 20
-197.0051061095
 10
631.7357416922
 20
-196.4011425633
 10
630.8873751089
 20
-195.4917912383
 10
630.2622880446
 20
-194.3046823144
 10
629.8794734534
 20
-192.8758854954
 10
629.750562963
 20
-191.2488140498
 10
629.8794734534
 20
-189.47290572
 10
630.2622880446
 20
-187.6021205821
 10
630.8873751089
 20
-185.6933014957
 10
631.7357416922
 20
-183.8044469629
 10
632.7816106052
 20
-181.9929488729
 10
633.9932036501
 20
-180.3138486785
 10
635.3337071855
 20
-178.8181649894
 10
636.7623906896
 20
-177.5513433976
 10
638.2358443372
 20
-176.5518756362
 10
639.7092979849
 20
-175.8501300274
 10
641.137981489
 20
-175.4674287564
 10
642.4784850244
 20
-175.4154000076
 10
643.6900780693
 20
-175.6956246482
 10
644.7359469823
 20
-176.2995881944
 10
645.5843135656
 20
-177.2089395194
 10
646.2094006299
 20
-178.3960484433
 10
646.5922152211
 20
-179.8248452623
 10
646.7211257115
 20
-181.4519167079
  0
LWPOLYLINE
  5
161
330
1F
100
AcDbEntity
  8
0
  6
Continuous
 62
     7
370
    25
100
AcDbPolyline
 90
       37
 70
   128
 43
0.0
 10
584.8492823576
 20
-198.0255196261
 10
584.7203718672
 20
-199.8014279559
 10
584.3375572761
 20
-201.6722130938
 10
583.7124702118
 20
-203.5810321802
 10
582.8641036284
 20
-205.469886713
 10
581.8182347155
 20
-207.281384803
 10
580.6066416705
 20
-208.9604849974
 10
579.2661381352
 20
-210.4561686866
 10
577.837454631
 20
-211.7229902783
 10
576.3640009834
 20
-212.7224580397
 10
574.8905473358
 20
-213.4242036485
 10
573.4618638316
 20
-213.8069049196
 10
572.1213602963
 20
-213.8589336684
 10
570.9097672513
 20
-213.5787090277
 10
569.8638983384
 20
-212.9747454815
 10
569.0155317551
 20
-212.0653941565
 10
568.3904446907
 20
-210.8782852326
 10
568.0076300996
 20
-209.4494884136
 10
567.8787196092
 20
-207.822416968
 10
568.0076300996
 20
-206.0465086382
 10
568.3904446907
 20
-204.1757235003
 10
569.0155317551
 20
-202.2669044139
 10
569.8638983384
 20
-200.3780498811
 10
570.9097672513
 20
-198.5665517911
 10
572.1213602963
 20
-196.8874515967
 10
573.4618638316
 20
-195.3917679076
 10
574.8905473358
 20
-194.1249463158
 10
576.3640009834
 20
-193.1254785544
 10
577.837454631
 20
-192.4237329456
 10
579.2661381352
 20
-192.0410316746
 10
580.6066416705
 20
-191.9890029258
 10
581.8182347155
 20
-192.2692275664
 10
582.8641036284
 20
-192.8731911126
 10
583.7124702118
 20
-193.7825424376
 10
584.3375572761
 20
-194.9696513615
 10
584.7203718672
 20
-196.3984481805
 10
584.8492823576
 20
-198.0255196261
  0
LWPOLYLINE
  5
162
330
1F
100
AcDbEntity
  8
0
  6
Continuous
 62
     7
370
    25
100
AcDbPolyline
 90
      130
 70
   128
 43
0.0
 10
681.015804599
 20
-285.4044101022
 10
680.891693341
 20
-291.3598598651
 10
680.5196539451
 20
-297.4444797675
 10
679.9005688476
 20
-303.6438377632
 10
679.0359064501
 20
-309.9432296601
 10
677.9277176361
 20
-316.3277139964
 10
676.5786309072
 20
-322.7821474807
 10
674.991846148
 20
-329.29122091
 10
673.1711270366
 20
-335.8394954811
 10
671.1207921176
 20
-342.4114394102
 10
668.845704559
 20
-348.9914647724
 10
666.351260617
 20
-355.5639644745
 10
663.6433768371
 20
-362.1133492734
 10
660.7284760204
 20
-368.6240847519
 10
657.6134719897
 20
-375.0807281647
 10
654.3057531903
 20
-381.4679650671
 10
650.8131651658
 20
-387.7706456388
 10
647.1439919491
 20
-393.9738206178
 10
643.3069364138
 20
-400.0627767583
 10
639.3110996316
 20
-406.0230717292
 10
635.1659592859
 20
-411.8405683692
 10
630.8813471916
 20
-417.5014682191
 10
626.4674259753
 20
-422.9923442498
 10
621.9346649704
 20
-428.3001727101
 10
617.2938153853
 20
-433.4123640172
 10
612.5558848024
 20
-438.3167926181
 10
607.7321110696
 20
-443.0018257502
 10
602.8339356453
 20
-447.4563510323
 10
597.8729764604
 20
-451.6698028227
 10
592.861000362
 20
-455.6321872793
 10
587.8098952038
 20
-459.3341060638
 10
582.731641649
 20
-462.7667786339
 10
577.638284754
 20
-465.9220630696
 10
572.5419053987
 20
-468.7924753847
 10
567.4545916319
 20
-471.3712072783
 10
562.3884099997
 20
-473.6521422834
 10
557.3553769254
 20
-475.629870274
 10
552.3674302071
 20
-477.2997002979
 10
547.4364007036
 20
-478.6576717028
 10
542.5739842719
 20
-479.7005635305
 10
537.7917140268
 20
-480.4259021568
 10
533.1009329847
 20
-480.8319671586
 10
528.5127671602
 20
-480.9177953947
 10
524.0380991756
 20
-480.6831832898
 10
519.6875424491
 20
-480.1286873181
 10
515.4714160204
 20
-479.2556226827
 10
511.3997200759
 20
-478.0660601964
 10
507.4821122282
 20
-476.5628213701
 10
503.7278846105
 20
-474.7494717201
 10
500.1459418359
 20
-472.6303123116
 10
496.7447798769
 20
-470.2103695563
 10
493.5324659139
 20
-467.4953832914
 10
490.5166192007
 20
-464.4917931641
 10
487.7043929925
 20
-461.2067233585
 10
485.1024575792
 20
-457.6479656971
 10
482.7169844642
 20
-453.82396116
 10
480.5536317261
 20
-449.7437798635
 10
478.6175305985
 20
-445.4170995468
 10
476.9132732995
 20
-440.8541826175
 10
475.4449021391
 20
-436.0658518106
 10
474.2158999315
 20
-431.0634645177
 10
473.2291817341
 20
-425.8588858487
 10
472.4870879334
 20
-420.4644604893
 10
471.9913786939
 20
-414.8929834205
 10
471.7432297833
 20
-409.1576695702
 10
471.7432297833
 20
-403.2721224694
 10
471.9913786939
 20
-397.2503019854
 10
472.4870879334
 20
-391.1064912111
 10
473.2291817341
 20
-384.855262587
 10
474.2158999315
 20
-378.5114433367
 10
475.4449021391
 20
-372.0900802986
 10
476.9132732995
 20
-365.6064042364
 10
478.6175305985
 20
-359.0757937132
 10
480.5536317261
 20
-352.5137386159
 10
482.7169844642
 20
-345.9358034141
 10
485.1024575792
 20
-339.3575902434
 10
487.7043929925
 20
-332.7947018986
 10
490.5166192007
 20
-326.2627048258
 10
493.5324659139
 20
-319.7770922004
 10
496.7447798769
 20
-313.353247179
 10
500.1459418359
 20
-307.0064064123
 10
503.7278846105
 20
-300.7516239054
 10
507.4821122282
 20
-294.6037353113
 10
511.3997200759
 20
-288.5773227425
 10
515.4714160204
 20
-282.6866801839
 10
519.6875424491
 20
-276.9457795888
 10
524.0380991756
 20
-271.3682377392
 10
528.5127671602
 20
-265.967283948
 10
533.1009329847
 20
-260.7557286811
 10
537.7917140268
 20
-255.7459331716
 10
542.5739842719
 20
-250.9497801011
 10
547.4364007036
 20
-246.3786454147
 10
552.3674302071
 20
-242.0433713389
 10
557.3553769254
 20
-237.9542406649
 10
562.3884099998
 20
-234.1209523588
 10
567.4545916319
 20
-230.5525985569
 10
572.5419053987
 20
-227.2576430004
 10
577.638284754
 20
-224.2439009596
 10
582.731641649
 20
-221.5185206978
 10
587.8098952038
 20
-219.0879665159
 10
592.861000362
 20
-216.9580034197
 10
597.8729764604
 20
-215.1336834466
 10
602.8339356453
 20
-213.6193336818
 10
607.7321110696
 20
-212.4185459958
 10
612.5558848024
 20
-211.5341685242
 10
617.2938153853
 20
-210.9682989127
 10
621.9346649704
 20
-210.7222793415
 10
626.4674259753
 20
-210.7966933419
 10
630.8813471916
 20
-211.1913644121
 10
635.1659592859
 20
-211.9053564358
 10
639.3110996316
 20
-212.9369759029
 10
643.3069364138
 20
-214.283775926
 10
647.1439919491
 20
-215.9425620443
 10
650.8131651658
 20
-217.9093998003
 10
654.3057531903
 20
-220.1796240721
 10
657.6134719897
 20
-222.7478501387
 10
660.7284760204
 20
-225.6079864515
 10
663.6433768371
 20
-228.7532490831
 10
666.351260617
 20
-232.1761778182
 10
668.845704559
 20
-235.8686538479
 10
671.1207921176
 20
-239.8219190271
 10
673.1711270366
 20
-244.0265966474
 10
674.991846148
 20
-248.4727136782
 10
676.5786309072
 20
-253.149724421
 10
677.9277176361
 20
-258.046535523
 10
679.0359064501
 20
-263.1515322895
 10
679.9005688476
 20
-268.4526062319
 10
680.5196539451
 20
-273.9371837887
 10
680.891693341
 20
-279.5922561477
 10
681.015804599
 20
-285.4044101022
  0
LWPOLYLINE
  5
163
330
1F
100
AcDbEntity
  8
0
  6
Continuous
 62
     7
370
    25
100
AcDbPolyline
 90
       37
 70
   128
 43
0.0
 10
692.0144586044
 20
-350.5023433354
 10
691.885548114
 20
-352.2782516652
 10
691.5027335228
 20
-354.1490368031
 10
690.8776464585
 20
-356.0578558895
 10
690.0292798752
 20
-357.9467104223
 10
688.9834109622
 20
-359.7582085123
 10
687.7718179173
 20
-361.4373087067
 10
686.4313143819
 20
-362.9329923959
 10
685.0026308778
 20
-364.1998139876
 10
683.5291772302
 20
-365.199281749
 10
682.0557235825
 20
-365.9010273578
 10
680.6270400784
 20
-366.2837286289
 10
679.286536543
 20
-366.3357573777
 10
678.0749434981
 20
-366.055532737
 10
677.0290745851
 20
-365.4515691908
 10
676.1807080018
 20
-364.5422178658
 10
675.5556209375
 20
-363.3551089419
 10
675.1728063463
 20
-361.9263121229
 10
675.0438958559
 20
-360.2992406773
 10
675.1728063463
 20
-358.5233323475
 10
675.5556209375
 20
-356.6525472096
 10
676.1807080018
 20
-354.7437281232
 10
677.0290745851
 20
-352.8548735904
 10
678.0749434981
 20
-351.0433755004
 10
679.286536543
 20
-349.364275306
 10
680.6270400784
 20
-347.8685916169
 10
682.0557235825
 20
-346.6017700251
 10
683.5291772302
 20
-345.6023022637
 10
685.0026308778
 20
-344.9005566549
 10
686.4313143819
 20
-344.5178553839
 10
687.7718179173
 20
-344.4658266351
 10
688.9834109622
 20
-344.7460512757
 10
690.0292798752
 20
-345.3500148219
 10
690.8776464585
 20
-346.2593661469
 10
691.5027335228
 20
-347.4464750708
 10
691.885548114
 20
-348.8752718898
 10
692.0144586044
 20
-350.5023433354
  0
LWPOLYLINE
  5
164
330
1F
100
AcDbEntity
  8
0
  6
Continuous
 62
     7
370
    25
100
AcDbPolyline
 90
       37
 70
   128
 43
0.0
 10
692.0144586044
 20
-207.6077012554
 10
691.885548114
 20
-209.3836095852
 10
691.5027335228
 20
-211.2543947231
 10
690.8776464585
 20
-213.1632138095
 10
690.0292798752
 20
-215.0520683423
 10
688.9834109622
 20
-216.8635664323
 10
687.7718179173
 20
-218.5426666267
 10
686.431314382
 20
-220.0383503158
 10
685.0026308778
 20
-221.3051719076
 10
683.5291772302
 20
-222.304639669
 10
682.0557235825
 20
-223.0063852778
 10
680.6270400784
 20
-223.3890865488
 10
679.2865365431
 20
-223.4411152976
 10
678.0749434981
 20
-223.160890657
 10
677.0290745851
 20
-222.5569271108
 10
676.1807080018
 20
-221.6475757858
 10
675.5556209375
 20
-220.4604668619
 10
675.1728063463
 20
-219.0316700429
 10
675.0438958559
 20
-217.4045985973
 10
675.1728063463
 20
-215.6286902675
 10
675.5556209375
 20
-213.7579051296
 10
676.1807080018
 20
-211.8490860432
 10
677.0290745851
 20
-209.9602315104
 10
678.0749434981
 20
-208.1487334204
 10
679.2865365431
 20
-206.469633226
 10
680.6270400784
 20
-204.9739495369
 10
682.0557235825
 20
-203.7071279451
 10
683.5291772302
 20
-202.7076601837
 10
685.0026308778
 20
-202.0059145749
 10
686.431314382
 20
-201.6232133038
 10
687.7718179173
 20
-201.571184555
 10
688.9834109622
 20
-201.8514091957
 10
690.0292798752
 20
-202.4553727419
 10
690.8776464585
 20
-203.3647240669
 10
691.5027335228
 20
-204.5518329908
 10
691.885548114
 20
-205.9806298098
 10
692.0144586044
 20
-207.6077012554
  0
LWPOLYLINE
  5
165
330
1F
100
AcDbEntity
  8
0
  6
Continuous
 62
     7
370
    25
100
AcDbPolyline
 90
       37
 70
   128
 43
0.0
 10
646.7211257115
 20
-428.9526969199
 10
646.5922152211
 20
-430.7286052497
 10
646.2094006299
 20
-432.5993903876
 10
645.5843135656
 20
-434.508209474
 10
644.7359469823
 20
-436.3970640068
 10
643.6900780693
 20
-438.2085620968
 10
642.4784850243
 20
-439.8876622912
 10
641.137981489
 20
-441.3833459803
 10
639.7092979848
 20
-442.6501675721
 10
638.2358443372
 20
-443.6496353335
 10
636.7623906896
 20
-444.3513809423
 10
635.3337071854
 20
-444.7340822133
 10
633.9932036501
 20
-444.7861109621
 10
632.7816106052
 20
-444.5058863215
 10
631.7357416922
 20
-443.9019227753
 10
630.8873751089
 20
-442.9925714503
 10
630.2622880446
 20
-441.8054625264
 10
629.8794734534
 20
-440.3766657074
 10
629.750562963
 20
-438.7495942618
 10
629.8794734534
 20
-436.973685932
 10
630.2622880446
 20
-435.1029007941
 10
630.8873751089
 20
-433.1940817077
 10
631.7357416922
 20
-431.3052271749
 10
632.7816106052
 20
-429.4937290849
 10
633.9932036501
 20
-427.8146288905
 10
635.3337071854
 20
-426.3189452013
 10
636.7623906896
 20
-425.0521236096
 10
638.2358443372
 20
-424.0526558482
 10
639.7092979848
 20
-423.3509102394
 10
641.137981489
 20
-422.9682089683
 10
642.4784850243
 20
-422.9161802195
 10
643.6900780693
 20
-423.1964048602
 10
644.7359469823
 20
-423.8003684064
 10
645.5843135656
 20
-424.7097197314
 10
646.2094006299
 20
-425.8968286553
 10
646.5922152211
 20
-427.3256254743
 10
646.7211257115
 20
-428.9526969199
  0
LWPOLYLINE
  5
166
330
1F
100
AcDbEntity
  8
0
  6
Continuous
 62
     7
370
    25
100
AcDbPolyline
 90
       37
 70
   128
 43
0.0
 10
522.9774390038
 20
-500.3884067044
 10
522.8485285134
 20
-502.1643150341
 10
522.4657139222
 20
-504.0351001721
 10
521.8406268579
 20
-505.9439192585
 10
520.9922602746
 20
-507.8327737912
 10
519.9463913616
 20
-509.6442718813
 10
518.7347983167
 20
-511.3233720757
 10
517.3942947813
 20
-512.8190557648
 10
515.9656112772
 20
-514.0858773566
 10
514.4921576296
 20
-515.0853451179
 10
513.0187039819
 20
-515.7870907268
 10
511.5900204778
 20
-516.1697919978
 10
510.2495169424
 20
-516.2218207466
 10
509.0379238975
 20
-515.941596106
 10
507.9920549845
 20
-515.3376325598
 10
507.1436884012
 20
-514.4282812348
 10
506.5186013369
 20
-513.2411723108
 10
506.1357867457
 20
-511.8123754919
 10
506.0068762553
 20
-510.1853040463
 10
506.1357867457
 20
-508.4093957165
 10
506.5186013369
 20
-506.5386105785
 10
507.1436884012
 20
-504.6297914922
 10
507.9920549845
 20
-502.7409369594
 10
509.0379238975
 20
-500.9294388694
 10
510.2495169424
 20
-499.2503386749
 10
511.5900204778
 20
-497.7546549858
 10
513.0187039819
 20
-496.4878333941
 10
514.4921576296
 20
-495.4883656327
 10
515.9656112772
 20
-494.7866200239
 10
517.3942947813
 20
-494.4039187528
 10
518.7347983167
 20
-494.351890004
 10
519.9463913616
 20
-494.6321146447
 10
520.9922602746
 20
-495.2360781908
 10
521.8406268579
 20
-496.1454295158
 10
522.4657139222
 20
-497.3325384398
 10
522.8485285134
 20
-498.7613352588
 10
522.9774390038
 20
-500.3884067044
  0
LWPOLYLINE
  5
167
330
1F
100
AcDbEntity
  8
0
  6
Continuous
 62
     7
370
    25
100
AcDbPolyline
 90
       37
 70
   128
 43
0.0
 10
461.10559565
 20
-412.3558714906
 10
460.9766851596
 20
-414.1317798204
 10
460.5938705684
 20
-416.0025649583
 10
459.9687835041
 20
-417.9113840447
 10
459.1204169208
 20
-419.8002385775
 10
458.0745480078
 20
-421.6117366675
 10
456.8629549629
 20
-423.2908368619
 10
455.5224514275
 20
-424.7865205511
 10
454.0937679234
 20
-426.0533421428
 10
452.6203142757
 20
-427.0528099042
 10
451.1468606281
 20
-427.754555513
 10
449.718177124
 20
-428.1372567841
 10
448.3776735886
 20
-428.1892855329
 10
447.1660805437
 20
-427.9090608922
 10
446.1202116307
 20
-427.305097346
 10
445.2718450474
 20
-426.395746021
 10
444.6467579831
 20
-425.2086370971
 10
444.2639433919
 20
-423.7798402781
 10
444.1350329015
 20
-422.1527688325
 10
444.2639433919
 20
-420.3768605027
 10
444.6467579831
 20
-418.5060753648
 10
445.2718450474
 20
-416.5972562784
 10
446.1202116307
 20
-414.7084017456
 10
447.1660805437
 20
-412.8969036556
 10
448.3776735886
 20
-411.2178034612
 10
449.718177124
 20
-409.7221197721
 10
451.1468606281
 20
-408.4552981803
 10
452.6203142757
 20
-407.4558304189
 10
454.0937679234
 20
-406.7540848101
 10
455.5224514275
 20
-406.3713835391
 10
456.8629549629
 20
-406.3193547903
 10
458.0745480078
 20
-406.5995794309
 10
459.1204169208
 20
-407.2035429771
 10
459.9687835041
 20
-408.1128943021
 10
460.5938705684
 20
-409.300003226
 10
460.9766851596
 20
-410.728800045
 10
461.10559565
 20
-412.3558714906
  0
LWPOLYLINE
  5
168
330
1F
100
AcDbEntity
  8
0
  6
Continuous
 62
     7
370
    25
100
AcDbPolyline
 90
       37
 70
   128
 43
0.0
 10
522.9774390038
 20
-252.8876264924
 10
522.8485285134
 20
-254.6635348222
 10
522.4657139222
 20
-256.5343199601
 10
521.8406268579
 20
-258.4431390465
 10
520.9922602746
 20
-260.3319935793
 10
519.9463913616
 20
-262.1434916693
 10
518.7347983167
 20
-263.8225918637
 10
517.3942947814
 20
-265.3182755528
 10
515.9656112772
 20
-266.5850971446
 10
514.4921576296
 20
-267.584564906
 10
513.018703982
 20
-268.2863105148
 10
511.5900204778
 20
-268.6690117858
 10
510.2495169425
 20
-268.7210405346
 10
509.0379238975
 20
-268.440815894
 10
507.9920549845
 20
-267.8368523478
 10
507.1436884012
 20
-266.9275010228
 10
506.5186013369
 20
-265.7403920989
 10
506.1357867457
 20
-264.3115952799
 10
506.0068762553
 20
-262.6845238343
 10
506.1357867457
 20
-260.9086155045
 10
506.5186013369
 20
-259.0378303666
 10
507.1436884012
 20
-257.1290112802
 10
507.9920549845
 20
-255.2401567474
 10
509.0379238975
 20
-253.4286586574
 10
510.2495169425
 20
-251.749558463
 10
511.5900204778
 20
-250.2538747739
 10
513.018703982
 20
-248.9870531821
 10
514.4921576296
 20
-247.9875854207
 10
515.9656112772
 20
-247.2858398119
 10
517.3942947814
 20
-246.9031385408
 10
518.7347983167
 20
-246.851109792
 10
519.9463913616
 20
-247.1313344327
 10
520.9922602746
 20
-247.7352979789
 10
521.8406268579
 20
-248.6446493039
 10
522.4657139222
 20
-249.8317582278
 10
522.8485285134
 20
-251.2605550468
 10
522.9774390038
 20
-252.8876264924
  0
ARC
  5
169
330
1F
100
AcDbEntity
  8
0
  6
Continuous
 62
     7
370
    25
100
AcDbCircle
 10
625.2599843394
 20
-262.7517400382
 30
0.0
 40
50.58771562692554
100
AcDbArc
 50
37.8488098242
 51
82.1849801943
  0
ARC
  5
16A
330
1F
100
AcDbEntity
  8
0
  6
Continuous
 62
     7
370
    25
100
AcDbCircle
 10
529.1048729379
 20
-429.3614218759
 30
0.0
 40
50.97979265705222
100
AcDbArc
 50
216.4932521854
 51
265.8435359977
  0
ARC
  5
16B
330
1F
100
AcDbEntity
  8
0
  6
Continuous
 62
     7
370
    25
100
AcDbCircle
 10
550.8413608651
 20
-439.1327934885
 30
0.0
 40
53.51900504468372
100
AcDbArc
 50
219.2561659466
 51
226.7133627056
  0
ARC
  5
16C
330
1F
100
AcDbEntity
  8
0
  6
Continuous
 62
     7
370
    25
100
AcDbCircle
 10
644.2778418128
 20
-277.5408304425
 30
0.0
 40
54.02493226466554
100
AcDbArc
 50
73.3081922922
 51
83.2715646263
  0
LINE
  5
16D
330
1F
100
AcDbEntity
  8
0
  6
Continuous
 62
     7
370
    25
100
AcDbLine
 10
689.8769344998
 20
-346.3682028008
 30
0.0
 11
689.7358370409
 21
-346.2824585761
 31
0.0
  0
LINE
  5
16E
330
1F
100
AcDbEntity
  8
0
  6
Continuous
 62
     7
370
    25
100
AcDbLine
 10
644.5836016068
 20
-424.8185563853
 30
0.0
 11
644.4425041479
 21
-424.7328121606
 31
0.0
  0
LINE
  5
16F
330
1F
100
AcDbEntity
  8
0
  6
Continuous
 62
     7
370
    25
100
AcDbLine
 10
706.4554449607
 20
-265.3503113871
 30
0.0
 11
706.3143475017
 21
-265.2645671623
 31
0.0
  0
LINE
  5
170
330
1F
100
AcDbEntity
  8
0
  6
Continuous
 62
     7
370
    25
100
AcDbLine
 10
582.711758253
 20
-479.6806632516
 30
0.0
 11
582.5706607941
 21
-479.5949190268
 31
0.0
  0
LINE
  5
171
330
1F
100
AcDbEntity
  8
0
  6
Continuous
 62
     7
370
    25
100
AcDbLine
 10
689.8769344998
 20
-203.4735607208
 30
0.0
 11
689.7358370409
 21
-203.3878164961
 31
0.0
  0
LINE
  5
172
330
1F
100
AcDbEntity
  8
0
  6
Continuous
 62
     7
370
    25
100
AcDbLine
 10
520.8399148992
 20
-496.2542661698
 30
0.0
 11
520.6988174402
 21
-496.168521945
 31
0.0
  0
LINE
  5
173
330
1F
100
AcDbEntity
  8
0
  6
Continuous
 62
     7
370
    25
100
AcDbLine
 10
644.5836016068
 20
-177.3177761733
 30
0.0
 11
644.4425041479
 21
-177.2320319486
 31
0.0
  0
LINE
  5
174
330
1F
100
AcDbEntity
  8
0
  6
Continuous
 62
     7
370
    25
100
AcDbLine
 10
475.5465820062
 20
-470.0984816223
 30
0.0
 11
475.4054845473
 21
-470.0127373976
 31
0.0
  0
LINE
  5
175
330
1F
100
AcDbEntity
  8
0
  6
Continuous
 62
     7
370
    25
100
AcDbLine
 10
582.711758253
 20
-193.8913790915
 30
0.0
 11
582.5706607941
 21
-193.8056348668
 31
0.0
  0
LINE
  5
176
330
1F
100
AcDbEntity
  8
0
  6
Continuous
 62
     7
370
    25
100
AcDbLine
 10
458.9680715453
 20
-408.221730956
 30
0.0
 11
458.8269740864
 21
-408.1359867313
 31
0.0
  0
LINE
  5
177
330
1F
100
AcDbEntity
  8
0
  6
Continuous
 62
     7
370
    25
100
AcDbLine
 10
520.8399148992
 20
-248.7534859578
 30
0.0
 11
520.6988174403
 21
-248.6677417331
 31
0.0
  0
LINE
  5
178
330
1F
100
AcDbEntity
  8
0
  6
Continuous
 62
     7
370
    25
100
AcDbLine
 10
475.5465820062
 20
-327.2038395423
 30
0.0
 11
475.4054845473
 21
-327.1180953175
 31
0.0
  0
LWPOLYLINE
  5
179
330
1F
100
AcDbEntity
  8
0
  6
Continuous
 62
     1
370
    25
100
AcDbPolyline
 90
       51
 70
   128
 43
0.0
 10
716.7246970489
 20
-265.6065133905
 10
716.6005475563
 20
-272.4766328719
 10
716.2283198115
 20
-279.4778774848
 10
715.6086756219
 20
-286.5977992717
 10
714.7427166924
 20
-293.8237392715
 10
713.6319826662
 20
-301.1428500266
 10
712.278448388
 20
-308.5421184251
 10
710.6845203923
 20
-316.008388838
 10
708.8530326249
 20
-323.5283865087
 10
706.7872414042
 20
-331.088741156
 10
704.4908196316
 20
-338.6760107452
 10
701.9678502612
 20
-346.2767053878
 10
699.2228190406
 20
-353.877311326
 10
696.2606065349
 20
-361.46431496
 10
693.0864794501
 20
-369.0242268741
 10
689.7060812681
 20
-376.5436058208
 10
686.1254222137
 20
-384.0090826188
 10
682.3508685678
 20
-391.4073839227
 10
678.3891313493
 20
-398.7253558229
 10
674.2472543822
 20
-405.9499872323
 10
669.9326017726
 20
-413.06843302
 10
665.4528448156
 20
-420.068036849
 10
660.8159483553
 20
-426.9363536793
 10
656.0301566246
 20
-433.6611718941
 10
651.1039785865
 20
-440.2305350121
 10
646.0461728057
 20
-446.6327629454
 10
640.8657318764
 20
-452.8564727664
 10
635.5718664334
 20
-458.8905989461
 10
630.1739887765
 20
-464.7244130283
 10
624.681696135
 20
-470.3475427046
 10
619.1047536048
 20
-475.7499902556
 10
613.4530767862
 20
-480.9221503266
 10
607.7367141544
 20
-485.8548270058
 10
601.9658291935
 20
-490.5392501742
 10
596.1506823264
 20
-494.9670910982
 10
590.301612672
 20
-499.1304772382
 10
584.4290196627
 20
-503.0220062457
 10
578.5433445546
 20
-506.6347591241
 10
572.6550518632
 20
-509.9623125306
 10
566.774610758
 20
-512.9987501967
 10
560.9124764487
 20
-515.738673447
 10
555.0790715962
 20
-518.177210798
 10
549.2847677815
 20
-520.3100266192
 10
543.5398670653
 20
-522.133328842
 10
537.8545836714
 20
-523.6438757015
 10
532.2390258262
 20
-524.8389815006
 10
526.7031777866
 20
-525.7165213847
 10
521.2568820885
 20
-526.27493512
 10
515.9098220467
 20
-526.5132298671
 10
510.671504539
 20
-526.4309819469
 10
507.9502878919
 20
-526.2580824371
  0
LWPOLYLINE
  5
17A
330
1F
100
AcDbEntity
  8
0
  6
Continuous
 62
     1
370
    25
100
AcDbPolyline
 90
       14
 70
   128
 43
0.0
 10
698.0047681053
 20
-195.7601039145
 10
699.2228190406
 20
-197.5429536803
 10
701.9678502612
 20
-201.9742140326
 10
704.4908196316
 20
-206.6619502442
 10
706.7872414042
 20
-211.5978276912
 10
708.8530326249
 20
-216.7730705636
 10
710.6845203923
 20
-222.1784774684
 10
712.278448388
 20
-227.8044377895
 10
713.6319826662
 20
-233.6409487747
 10
714.7427166924
 20
-239.6776333204
 10
715.6086756219
 20
-245.9037584218
 10
716.2283198115
 20
-252.3082542557
 10
716.6005475563
 20
-258.8797338623
 10
716.7246970489
 20
-265.6065133905
  0
LWPOLYLINE
  5
17B
330
1F
100
AcDbEntity
  8
0
  6
Continuous
 62
     1
370
    25
100
AcDbPolyline
 90
       14
 70
   128
 43
0.0
 10
736.5236869222
 20
-277.036226956
 10
736.3995374295
 20
-270.3094474278
 10
736.0273096847
 20
-263.7379678212
 10
735.4076654952
 20
-257.3334719873
 10
734.5417065656
 20
-251.1073468859
 10
733.4309725395
 20
-245.0706623402
 10
732.0774382612
 20
-239.234151355
 10
730.4835102655
 20
-233.608191034
 10
728.6520224981
 20
-228.2027841291
 10
726.5862312774
 20
-223.0275412567
 10
724.2898095048
 20
-218.0916638097
 10
721.7668401344
 20
-213.4039275981
 10
719.0218089138
 20
-208.9726672458
 10
718.2061887725
 20
-207.7675476865
  0
LWPOLYLINE
  5
17C
330
1F
100
AcDbEntity
  8
0
  6
Continuous
 62
     1
370
    25
100
AcDbPolyline
 90
       51
 70
   128
 43
0.0
 10
527.7626582524
 20
-537.6888716372
 10
530.4704944123
 20
-537.8606955124
 10
535.7088119199
 20
-537.9429434327
 10
541.0558719617
 20
-537.7046486855
 10
546.5021676598
 20
-537.1462349502
 10
552.0380156994
 20
-536.2686950661
 10
557.6535735446
 20
-535.073589267
 10
563.3388569385
 20
-533.5630424075
 10
569.0837576548
 20
-531.7397401847
 10
574.8780614695
 20
-529.6069243635
 10
580.7114663219
 20
-527.1683870125
 10
586.5736006312
 20
-524.4284637622
 10
592.4540417364
 20
-521.3920260962
 10
598.3423344278
 20
-518.0644726897
 10
604.228009536
 20
-514.4517198113
 10
610.1006025453
 20
-510.5601908038
 10
615.9496721997
 20
-506.3968046637
 10
621.7648190667
 20
-501.9689637397
 10
627.5357040276
 20
-497.2845405714
 10
633.2520666594
 20
-492.3518638921
 10
638.903743478
 20
-487.1797038211
 10
644.4806860082
 20
-481.7772562701
 10
649.9729786497
 20
-476.1541265938
 10
655.3708563067
 20
-470.3203125116
 10
660.6647217496
 20
-464.2861863319
 10
665.8451626789
 20
-458.0624765109
 10
670.9029684597
 20
-451.6602485776
 10
675.8291464978
 20
-445.0908854596
 10
680.6149382285
 20
-438.3660672448
 10
685.2518346888
 20
-431.4977504145
 10
689.7315916459
 20
-424.4981465855
 10
694.0462442554
 20
-417.3797007978
 10
698.1881212225
 20
-410.1550693884
 10
702.1498584411
 20
-402.8370974883
 10
705.9244120869
 20
-395.4387961843
 10
709.5050711414
 20
-387.9733193863
 10
712.8854693233
 20
-380.4539404396
 10
716.0595964082
 20
-372.8940285255
 10
719.0218089138
 20
-365.3070248915
 10
721.7668401344
 20
-357.7064189533
 10
724.2898095048
 20
-350.1057243107
 10
726.5862312774
 20
-342.5184547216
 10
728.6520224981
 20
-334.9581000743
 10
730.4835102655
 20
-327.4381024035
 10
732.0774382612
 20
-319.9718319906
 10
733.4309725395
 20
-312.5725635921
 10
734.5417065656
 20
-305.253452837
 10
735.4076654952
 20
-298.0275128372
 10
736.0273096847
 20
-290.9075910503
 10
736.3995374295
 20
-283.9063464374
 10
736.5236869222
 20
-277.036226956
  0
LWPOLYLINE
  5
17D
330
1F
100
AcDbEntity
  8
0
  6
Continuous
 62
     1
370
    25
100
AcDbPolyline
 90
       57
 70
   128
 43
0.0
 10
632.1386635119
 20
-212.6338715162
 10
630.5093616515
 20
-212.4231160174
 10
626.0702986627
 20
-212.0818519595
 10
621.5131923312
 20
-212.0637548658
 10
616.8490211253
 20
-212.3688683339
 10
612.089021442
 20
-212.9964573187
 10
607.2446605375
 20
-213.9450099035
 10
602.3276089014
 20
-215.2122409418
 10
597.3497121419
 20
-216.7950975633
 10
592.3229624482
 20
-218.6897665275
 10
587.2594697007
 20
-220.8916834111
 10
582.1714322969
 20
-223.3955436033
 10
577.0711077646
 20
-226.1953150858
 10
571.9707832323
 20
-229.2842529637
 10
566.8827458285
 20
-232.6549157151
 10
561.819253081
 20
-236.2991831182
 10
556.7925033873
 20
-240.2082758138
 10
551.8146066278
 20
-244.372776455
 10
546.8975549917
 20
-248.782652395
 10
542.0531940871
 20
-253.4272798565
 10
537.2931944038
 20
-258.295469525
 10
532.629023198
 20
-263.3754935053
 10
528.0719168665
 20
-268.6551135747
 10
523.6328538777
 20
-274.1216106659
 10
519.3225283231
 20
-279.7618155086
 10
515.1513241547
 20
-285.5621403554
 10
511.1292901684
 20
-291.5086117157
 10
507.2661157966
 20
-297.586904019
 10
503.5711077646
 20
-303.7823741269
 10
500.0531676704
 20
-310.0800966091
 10
496.72077054
 20
-316.4648997007
 10
493.5819444097
 20
-322.9214018517
 10
490.6442509868
 20
-329.434048783
 10
487.9147674319
 20
-335.9871509575
 10
485.4000693101
 20
-342.5649213783
 10
483.1062147493
 20
-349.1515136202
 10
481.0387298462
 20
-355.7310600055
 10
479.2025953529
 20
-362.2877098308
 10
477.6022346783
 20
-368.8056675523
 10
476.2415032314
 20
-375.269230839
 10
475.1236791334
 20
-381.6628284008
 10
474.2514553206
 20
-387.971057501
 10
473.6269330564
 20
-394.1787210634
 10
473.2516168698
 20
-400.2708642826
 10
473.1264109302
 20
-406.232810652
 10
473.2516168698
 20
-412.0501973206
 10
473.6269330564
 20
-417.7090096943
 10
474.2514553206
 20
-423.1956151986
 10
475.1236791334
 20
-428.4967961202
 10
476.2415032314
 20
-433.5997814499
 10
477.6022346783
 20
-438.4922776491
 10
479.2025953529
 20
-443.1624982659
 10
481.0387298462
 20
-447.5991923298
 10
483.1062147493
 20
-451.7916714561
 10
485.4000693101
 20
-455.7298355955
 10
487.9147674319
 20
-459.4041973656
 10
488.1208458433
 20
-459.6805376687
  0
LWPOLYLINE
  5
17E
330
1F
100
AcDbEntity
  8
0
  6
Continuous
 62
     1
370
    25
100
AcDbPolyline
 90
       57
 70
   128
 43
0.0
 10
509.4002813494
 20
-472.9990130819
 10
507.7137573051
 20
-470.8339109311
 10
505.1990591833
 20
-467.159549161
 10
502.9052046225
 20
-463.2213850216
 10
500.8377197194
 20
-459.0289058953
 10
499.0015852261
 20
-454.5922118314
 10
497.4012245515
 20
-449.9219912146
 10
496.0404931046
 20
-445.0294950154
 10
494.9226690066
 20
-439.9265096857
 10
494.0504451938
 20
-434.6253287641
 10
493.4259229296
 20
-429.1387232598
 10
493.050606743
 20
-423.4799108861
 10
492.9254008034
 20
-417.6625242175
 10
493.050606743
 20
-411.7005778481
 10
493.4259229296
 20
-405.6084346289
 10
494.0504451938
 20
-399.4007710665
 10
494.9226690066
 20
-393.0925419663
 10
496.0404931046
 20
-386.6989444045
 10
497.4012245515
 20
-380.2353811179
 10
499.0015852261
 20
-373.7174233963
 10
500.8377197194
 20
-367.160773571
 10
502.9052046225
 20
-360.5812271857
 10
505.1990591833
 20
-353.9946349438
 10
507.7137573051
 20
-347.4168645231
 10
510.44324086
 20
-340.8637623485
 10
513.3809342829
 20
-334.3511154173
 10
516.5197604132
 20
-327.8946132662
 10
519.8521575437
 20
-321.5098101747
 10
523.3700976378
 20
-315.2120876924
 10
527.0651056698
 20
-309.0166175845
 10
530.9282800416
 20
-302.9383252812
 10
534.9503140279
 20
-296.9918539209
 10
539.1215181964
 20
-291.1915290741
 10
543.4318437509
 20
-285.5513242314
 10
547.8709067397
 20
-280.0848271402
 10
552.4280130712
 20
-274.8052070709
 10
557.0921842771
 20
-269.7251830905
 10
561.8521839604
 20
-264.856993422
 10
566.6965448649
 20
-260.2123659605
 10
571.613596501
 20
-255.8024900205
 10
576.5914932605
 20
-251.6379893793
 10
581.6182429542
 20
-247.7288966838
 10
586.6817357017
 20
-244.0846292806
 10
591.7697731055
 20
-240.7139665292
 10
596.8700976378
 20
-237.6250286513
 10
601.9704221702
 20
-234.8252571689
 10
607.058459574
 20
-232.3213969766
 10
612.1219523215
 20
-230.119480093
 10
617.1487020151
 20
-228.2248111288
 10
622.1265987746
 20
-226.6419545073
 10
627.0436504107
 20
-225.374723469
 10
631.8880113153
 20
-224.4261708843
 10
636.6480109986
 20
-223.7985818994
 10
641.3121822044
 20
-223.4934684313
 10
645.8692885359
 20
-223.511565525
 10
650.3083515247
 20
-223.852829583
 10
650.6075986774
 20
-223.887988167
  0
LWPOLYLINE
  5
17F
330
1F
100
AcDbEntity
  8
0
  6
Continuous
 62
     1
370
    25
100
AcDbPolyline
 90
       19
 70
   128
 43
0.0
 10
689.7358370409
 20
-346.2824585761
 10
689.0858965472
 20
-345.987003889
 10
687.9221172022
 20
-345.7717457566
 10
686.6398721458
 20
-345.8790931077
 10
685.2803737891
 20
-346.3055957102
 10
683.8873175278
 20
-347.0375454193
 10
682.5054773364
 20
-348.0514167693
 10
681.1792666957
 20
-349.3146231008
 10
679.9513111068
 20
-350.7865639228
 10
678.8610780728
 20
-352.4199298462
 10
677.9436085804
 20
-354.1622231464
 10
677.2283908539
 20
-355.957445083
 10
676.7384125796
 20
-357.747895746
 10
676.4894220625
 20
-359.4760285778
 10
676.4894220625
 20
-361.0862999674
 10
676.7384125796
 20
-362.5269544672
 10
677.2283908539
 20
-363.7516882563
 10
677.9436085804
 20
-364.7211373831
 10
678.7926501828
 20
-365.3671652215
  0
LWPOLYLINE
  5
180
330
1F
100
AcDbEntity
  8
0
  6
Continuous
 62
     1
370
    25
100
AcDbPolyline
 90
       19
 70
   128
 43
0.0
 10
644.4425041479
 20
-424.7328121606
 10
643.7925636542
 20
-424.4373574735
 10
642.6287843093
 20
-424.2220993411
 10
641.3465392529
 20
-424.3294466922
 10
639.9870408961
 20
-424.7559492946
 10
638.5939846348
 20
-425.4878990038
 10
637.2121444435
 20
-426.5017703538
 10
635.8859338028
 20
-427.7649766852
 10
634.6579782139
 20
-429.2369175073
 10
633.5677451798
 20
-430.8702834307
 10
632.6502756874
 20
-432.6125767309
 10
631.935057961
 20
-434.4077986675
 10
631.4450796867
 20
-436.1982493305
 10
631.1960891695
 20
-437.9263821623
 10
631.1960891695
 20
-439.5366535518
 10
631.4450796867
 20
-440.9773080516
 10
631.935057961
 20
-442.2020418408
 10
632.6502756874
 20
-443.1714909675
 10
633.4993172898
 20
-443.8175188059
  0
LWPOLYLINE
  5
181
330
1F
100
AcDbEntity
  8
0
  6
Continuous
 62
     1
370
    25
100
AcDbPolyline
 90
       19
 70
   128
 43
0.0
 10
706.3143475017
 20
-265.2645671623
 10
705.6644070081
 20
-264.9691124752
 10
704.5006276631
 20
-264.7538543428
 10
703.2183826067
 20
-264.861201694
 10
701.85888425
 20
-265.2877042964
 10
700.4658279887
 20
-266.0196540056
 10
699.0839877973
 20
-267.0335253556
 10
697.7577771566
 20
-268.296731687
 10
696.5298215677
 20
-269.768672509
 10
695.4395885337
 20
-271.4020384325
 10
694.5221190412
 20
-273.1443317326
 10
693.8069013148
 20
-274.9395536693
 10
693.3169230405
 20
-276.7300043323
 10
693.0679325234
 20
-278.4581371641
 10
693.0679325234
 20
-280.0684085536
 10
693.3169230405
 20
-281.5090630534
 10
693.8069013148
 20
-282.7337968426
 10
694.5221190412
 20
-283.7032459693
 10
695.3711606437
 20
-284.3492738077
  0
LWPOLYLINE
  5
182
330
1F
100
AcDbEntity
  8
0
  6
Continuous
 62
     1
370
    25
100
AcDbPolyline
 90
       19
 70
   128
 43
0.0
 10
582.5706607941
 20
-479.5949190268
 10
581.9207203004
 20
-479.2994643397
 10
580.7569409555
 20
-479.0842062073
 10
579.474695899
 20
-479.1915535585
 10
578.1151975423
 20
-479.6180561609
 10
576.722141281
 20
-480.3500058701
 10
575.3403010897
 20
-481.3638772201
 10
574.0140904489
 20
-482.6270835515
 10
572.7861348601
 20
-484.0990243735
 10
571.695901826
 20
-485.732390297
 10
570.7784323336
 20
-487.4746835971
 10
570.0632146071
 20
-489.2699055338
 10
569.5732363329
 20
-491.0603561968
 10
569.3242458157
 20
-492.7884890286
 10
569.3242458157
 20
-494.3987604181
 10
569.5732363329
 20
-495.8394149179
 10
570.0632146071
 20
-497.0641487071
 10
570.7784323336
 20
-498.0335978338
 10
571.627473936
 20
-498.6796256722
  0
LWPOLYLINE
  5
183
330
1F
100
AcDbEntity
  8
0
  6
Continuous
 62
     1
370
    25
100
AcDbPolyline
 90
       19
 70
   128
 43
0.0
 10
689.7358370409
 20
-203.3878164961
 10
689.0858965472
 20
-203.092361809
 10
687.9221172023
 20
-202.8771036766
 10
686.6398721458
 20
-202.9844510277
 10
685.2803737891
 20
-203.4109536301
 10
683.8873175278
 20
-204.1429033393
 10
682.5054773364
 20
-205.1567746893
 10
681.1792666957
 20
-206.4199810208
 10
679.9513111068
 20
-207.8919218428
 10
678.8610780728
 20
-209.5252877662
 10
677.9436085804
 20
-211.2675810664
 10
677.2283908539
 20
-213.062803003
 10
676.7384125797
 20
-214.853253666
 10
676.4894220625
 20
-216.5813864978
 10
676.4894220625
 20
-218.1916578873
 10
676.7384125797
 20
-219.6323123872
 10
677.2283908539
 20
-220.8570461763
 10
677.9436085804
 20
-221.826495303
 10
678.7926501828
 20
-222.4725231414
  0
LWPOLYLINE
  5
184
330
1F
100
AcDbEntity
  8
0
  6
Continuous
 62
     1
370
    25
100
AcDbPolyline
 90
       19
 70
   128
 43
0.0
 10
520.6988174402
 20
-496.168521945
 10
520.0488769466
 20
-495.8730672579
 10
518.8850976016
 20
-495.6578091256
 10
517.6028525452
 20
-495.7651564767
 10
516.2433541885
 20
-496.1916590791
 10
514.8502979272
 20
-496.9236087883
 10
513.4684577358
 20
-497.9374801383
 10
512.1422470951
 20
-499.2006864697
 10
510.9142915062
 20
-500.6726272917
 10
509.8240584722
 20
-502.3059932152
 10
508.9065889798
 20
-504.0482865153
 10
508.1913712533
 20
-505.843508452
 10
507.701392979
 20
-507.633959115
 10
507.4524024619
 20
-509.3620919468
 10
507.4524024619
 20
-510.9723633363
 10
507.701392979
 20
-512.4130178361
 10
508.1913712533
 20
-513.6377516253
 10
508.9065889798
 20
-514.607200752
 10
509.7556305822
 20
-515.2532285904
  0
LWPOLYLINE
  5
185
330
1F
100
AcDbEntity
  8
0
  6
Continuous
 62
     1
370
    25
100
AcDbPolyline
 90
       19
 70
   128
 43
0.0
 10
644.4425041479
 20
-177.2320319486
 10
643.7925636543
 20
-176.9365772615
 10
642.6287843093
 20
-176.7213191291
 10
641.3465392529
 20
-176.8286664802
 10
639.9870408961
 20
-177.2551690826
 10
638.5939846349
 20
-177.9871187918
 10
637.2121444435
 20
-179.0009901418
 10
635.8859338028
 20
-180.2641964733
 10
634.6579782139
 20
-181.7361372953
 10
633.5677451799
 20
-183.3695032187
 10
632.6502756874
 20
-185.1117965189
 10
631.935057961
 20
-186.9070184555
 10
631.4450796867
 20
-188.6974691185
 10
631.1960891695
 20
-190.4256019503
 10
631.1960891695
 20
-192.0358733398
 10
631.4450796867
 20
-193.4765278397
 10
631.935057961
 20
-194.7012616288
 10
632.6502756874
 20
-195.6707107556
 10
633.4993172899
 20
-196.316738594
  0
LWPOLYLINE
  5
186
330
1F
100
AcDbEntity
  8
0
  6
Continuous
 62
     1
370
    25
100
AcDbPolyline
 90
       19
 70
   128
 43
0.0
 10
475.4054845473
 20
-470.0127373976
 10
474.7555440537
 20
-469.7172827105
 10
473.5917647087
 20
-469.5020245781
 10
472.3095196523
 20
-469.6093719292
 10
470.9500212955
 20
-470.0358745316
 10
469.5569650343
 20
-470.7678242408
 10
468.1751248429
 20
-471.7816955908
 10
466.8489142022
 20
-473.0449019222
 10
465.6209586133
 20
-474.5168427443
 10
464.5307255792
 20
-476.1502086677
 10
463.6132560868
 20
-477.8925019679
 10
462.8980383604
 20
-479.6877239045
 10
462.4080600861
 20
-481.4781745675
 10
462.1590695689
 20
-483.2063073993
 10
462.1590695689
 20
-484.8165787888
 10
462.4080600861
 20
-486.2572332886
 10
462.8980383604
 20
-487.4819670778
 10
463.6132560868
 20
-488.4514162045
 10
464.4622976892
 20
-489.0974440429
  0
LWPOLYLINE
  5
187
330
1F
100
AcDbEntity
  8
0
  6
Continuous
 62
     1
370
    25
100
AcDbPolyline
 90
       19
 70
   128
 43
0.0
 10
582.5706607941
 20
-193.8056348668
 10
581.9207203004
 20
-193.5101801797
 10
580.7569409555
 20
-193.2949220473
 10
579.4746958991
 20
-193.4022693984
 10
578.1151975423
 20
-193.8287720008
 10
576.722141281
 20
-194.56072171
 10
575.3403010897
 20
-195.57459306
 10
574.014090449
 20
-196.8377993915
 10
572.7861348601
 20
-198.3097402135
 10
571.695901826
 20
-199.9431061369
 10
570.7784323336
 20
-201.6853994371
 10
570.0632146071
 20
-203.4806213737
 10
569.5732363329
 20
-205.2710720367
 10
569.3242458157
 20
-206.9992048685
 10
569.3242458157
 20
-208.609476258
 10
569.5732363329
 20
-210.0501307579
 10
570.0632146071
 20
-211.274864547
 10
570.7784323336
 20
-212.2443136738
 10
571.627473936
 20
-212.8903415122
  0
LWPOLYLINE
  5
188
330
1F
100
AcDbEntity
  8
0
  6
Continuous
 62
     1
370
    25
100
AcDbPolyline
 90
       19
 70
   128
 43
0.0
 10
458.8269740864
 20
-408.1359867313
 10
458.1770335928
 20
-407.8405320442
 10
457.0132542478
 20
-407.6252739118
 10
455.7310091914
 20
-407.7326212629
 10
454.3715108347
 20
-408.1591238654
 10
452.9784545734
 20
-408.8910735745
 10
451.596614382
 20
-409.9049449245
 10
450.2704037413
 20
-411.168151256
 10
449.0424481524
 20
-412.640092078
 10
447.9522151184
 20
-414.2734580014
 10
447.0347456259
 20
-416.0157513016
 10
446.3195278995
 20
-417.8109732383
 10
445.8295496252
 20
-419.6014239012
 10
445.580559108
 20
-421.329556733
 10
445.580559108
 20
-422.9398281226
 10
445.8295496252
 20
-424.3804826224
 10
446.3195278995
 20
-425.6052164115
 10
447.0347456259
 20
-426.5746655383
 10
447.8837872284
 20
-427.2206933767
  0
LWPOLYLINE
  5
189
330
1F
100
AcDbEntity
  8
0
  6
Continuous
 62
     1
370
    25
100
AcDbPolyline
 90
       19
 70
   128
 43
0.0
 10
520.6988174403
 20
-248.6677417331
 10
520.0488769466
 20
-248.372287046
 10
518.8850976017
 20
-248.1570289136
 10
517.6028525452
 20
-248.2643762647
 10
516.2433541885
 20
-248.6908788671
 10
514.8502979272
 20
-249.4228285763
 10
513.4684577358
 20
-250.4366999263
 10
512.1422470951
 20
-251.6999062578
 10
510.9142915062
 20
-253.1718470798
 10
509.8240584722
 20
-254.8052130032
 10
508.9065889798
 20
-256.5475063034
 10
508.1913712533
 20
-258.34272824
 10
507.7013929791
 20
-260.133178903
 10
507.4524024619
 20
-261.8613117348
 10
507.4524024619
 20
-263.4715831243
 10
507.7013929791
 20
-264.9122376242
 10
508.1913712533
 20
-266.1369714133
 10
508.9065889798
 20
-267.10642054
 10
509.7556305822
 20
-267.7524483784
  0
LWPOLYLINE
  5
18A
330
1F
100
AcDbEntity
  8
0
  6
Continuous
 62
     1
370
    25
100
AcDbPolyline
 90
       19
 70
   128
 43
0.0
 10
475.4054845473
 20
-327.1180953175
 10
474.7555440537
 20
-326.8226406304
 10
473.5917647087
 20
-326.607382498
 10
472.3095196523
 20
-326.7147298492
 10
470.9500212955
 20
-327.1412324516
 10
469.5569650343
 20
-327.8731821608
 10
468.1751248429
 20
-328.8870535108
 10
466.8489142022
 20
-330.1502598422
 10
465.6209586133
 20
-331.6222006642
 10
464.5307255793
 20
-333.2555665877
 10
463.6132560868
 20
-334.9978598878
 10
462.8980383604
 20
-336.7930818245
 10
462.4080600861
 20
-338.5835324875
 10
462.1590695689
 20
-340.3116653193
 10
462.1590695689
 20
-341.9219367088
 10
462.4080600861
 20
-343.3625912086
 10
462.8980383604
 20
-344.5873249978
 10
463.6132560868
 20
-345.5567741245
 10
464.4622976892
 20
-346.2028019629
  0
ENDSEC
  0
SECTION
  2
OBJECTS
  0
DICTIONARY
  5
C
330
0
100
AcDbDictionary
281
     1
  3
ACAD_GROUP
350
D
  3
ACAD_LAYOUT
350
1A
  3
ACAD_MLINESTYLE
350
17
  3
ACAD_PLOTSETTINGS
350
19
  3
ACAD_PLOTSTYLENAME
350
E
  3
ACAD_SCALELIST
350
47
  3
DWGPROPS
350
18B
  0
DICTIONARY
  5
D
102
{ACAD_REACTORS
330
C
102
}
330
C
100
AcDbDictionary
281
     1
  0
DICTIONARY
  5
1A
102
{ACAD_REACTORS
330
C
102
}
330
C
100
AcDbDictionary
281
     1
  3
Layout1
350
1E
  3
Layout2
350
26
  3
Model
350
22
  0
DICTIONARY
  5
17
102
{ACAD_REACTORS
330
C
102
}
330
C
100
AcDbDictionary
281
     1
  3
Standard
350
18
  0
DICTIONARY
  5
19
102
{ACAD_REACTORS
330
C
102
}
330
C
100
AcDbDictionary
281
     1
  0
ACDBDICTIONARYWDFLT
  5
E
102
{ACAD_REACTORS
330
C
102
}
330
C
100
AcDbDictionary
281
     1
  3
Normal
350
F
100
AcDbDictionaryWithDefault
340
F
  0
DICTIONARY
  5
47
102
{ACAD_REACTORS
330
C
102
}
330
C
100
AcDbDictionary
281
     1
  3
A0
350
48
  3
A1
350
49
  3
A2
350
4A
  3
A3
350
4B
  3
A4
350
4C
  3
A5
350
4D
  3
A6
350
4E
  3
A7
350
4F
  3
A8
350
50
  3
A9
350
51
  3
B0
350
52
  3
B1
350
53
  3
B2
350
54
  3
B3
350
55
  3
B4
350
56
  3
B5
350
57
  3
B6
350
58
  3
B7
350
59
  3
B8
350
5A
  3
B9
350
5B
  3
C0
350
5C
  3
C1
350
5D
  3
C2
350
5E
  3
C3
350
5F
  3
C4
350
60
  3
C5
350
61
  3
C6
350
62
  3
C7
350
63
  3
C8
350
64
  3
C9
350
65
  3
D0
350
66
  3
D1
350
67
  3
D2
350
68
  0
XRECORD
  5
18B
102
{ACAD_REACTORS
330
C
102
}
330
C
100
AcDbXrecord
280
     1
  1
DWGPROPS COOKIE
  2

  3

  4

  6

  7

  8
b.kav
  9

300
=
301
=
302
=
303
=
304
=
305
=
306
=
307
=
308
=
309
=
 40
0.0
 41
2459741.466034491
 42
2459741.466036643
  1

 90
        0
  0
LAYOUT
  5
1E
102
{ACAD_REACTORS
330
1A
102
}
330
1A
100
AcDbPlotSettings
  1

  2
none_device
  4

  6

 40
0.0
 41
0.0
 42
0.0
 43
0.0
 44
0.0
 45
0.0
 46
0.0
 47
0.0
 48
0.0
 49
0.0
140
0.0
141
0.0
142
1.0
143
1.0
 70
   688
 72
     1
 73
     0
 74
     5
  7

 75
    16
147
1.0
148
0.0
149
0.0
100
AcDbLayout
  1
Layout1
 70
     1
 71
     1
 10
0.0
 20
0.0
 11
420.0
 21
297.0
 12
0.0
 22
0.0
 32
0.0
 14
1.0000000000E+20
 24
1.0000000000E+20
 34
1.0000000000E+20
 15
-1.0000000000E+20
 25
-1.0000000000E+20
 35
-1.0000000000E+20
146
0.0
 13
0.0
 23
0.0
 33
0.0
 16
1.0
 26
0.0
 36
0.0
 17
0.0
 27
1.0
 37
0.0
 76
     0
330
1B
  0
LAYOUT
  5
26
102
{ACAD_REACTORS
330
1A
102
}
330
1A
100
AcDbPlotSettings
  1

  2
none_device
  4

  6

 40
0.0
 41
0.0
 42
0.0
 43
0.0
 44
0.0
 45
0.0
 46
0.0
 47
0.0
 48
0.0
 49
0.0
140
0.0
141
0.0
142
1.0
143
1.0
 70
   688
 72
     1
 73
     0
 74
     5
  7

 75
    16
147
1.0
148
0.0
149
0.0
100
AcDbLayout
  1
Layout2
 70
     1
 71
     2
 10
0.0
 20
0.0
 11
0.0
 21
0.0
 12
0.0
 22
0.0
 32
0.0
 14
0.0
 24
0.0
 34
0.0
 15
0.0
 25
0.0
 35
0.0
146
0.0
 13
0.0
 23
0.0
 33
0.0
 16
1.0
 26
0.0
 36
0.0
 17
0.0
 27
1.0
 37
0.0
 76
     0
330
23
  0
LAYOUT
  5
22
102
{ACAD_REACTORS
330
1A
102
}
330
1A
100
AcDbPlotSettings
  1

  2
none_device
  4
Letter_(8.50_x_11.00_Inches)
  6

 40
6.35
 41
6.35
 42
6.35000508
 43
6.35000508
 44
215.9
 45
279.4
 46
0.0
 47
0.0
 48
0.0
 49
0.0
140
0.0
141
0.0
142
1.0
143
1.0
 70
  1712
 72
     1
 73
     0
 74
     0
  7

 75
     0
147
1.0
148
0.0
149
0.0
100
AcDbLayout
  1
Model
 70
     1
 71
     0
 10
0.0
 20
0.0
 11
279.4
 21
215.9
 12
0.0
 22
0.0
 32
0.0
 14
0.0
 24
0.0
 34
0.0
 15
279.4
 25
215.9
 35
0.0
146
0.0
 13
0.0
 23
0.0
 33
0.0
 16
1.0
 26
0.0
 36
0.0
 17
0.0
 27
1.0
 37
0.0
 76
     0
330
1F
331
29
  0
MLINESTYLE
  5
18
102
{ACAD_REACTORS
330
17
102
}
330
17
100
AcDbMlineStyle
  2
Standard
 70
     0
  3

 62
   256
 51
90.0
 52
90.0
 71
     2
 49
0.5
 62
   256
  6
BYLAYER
 49
-0.5
 62
   256
  6
BYLAYER
  0
ACDBPLACEHOLDER
  5
F
102
{ACAD_REACTORS
330
E
102
}
330
E
  0
SCALE
  5
48
102
{ACAD_REACTORS
330
47
102
}
330
47
100
AcDbScale
 70
     0
300
1:1
140
1.0
141
1.0
290
     1
  0
SCALE
  5
49
102
{ACAD_REACTORS
330
47
102
}
330
47
100
AcDbScale
 70
     0
300
1:2
140
1.0
141
2.0
290
     0
  0
SCALE
  5
4A
102
{ACAD_REACTORS
330
47
102
}
330
47
100
AcDbScale
 70
     0
300
1:4
140
1.0
141
4.0
290
     0
  0
SCALE
  5
4B
102
{ACAD_REACTORS
330
47
102
}
330
47
100
AcDbScale
 70
     0
300
1:5
140
1.0
141
5.0
290
     0
  0
SCALE
  5
4C
102
{ACAD_REACTORS
330
47
102
}
330
47
100
AcDbScale
 70
     0
300
1:8
140
1.0
141
8.0
290
     0
  0
SCALE
  5
4D
102
{ACAD_REACTORS
330
47
102
}
330
47
100
AcDbScale
 70
     0
300
1:10
140
1.0
141
10.0
290
     0
  0
SCALE
  5
4E
102
{ACAD_REACTORS
330
47
102
}
330
47
100
AcDbScale
 70
     0
300
1:16
140
1.0
141
16.0
290
     0
  0
SCALE
  5
4F
102
{ACAD_REACTORS
330
47
102
}
330
47
100
AcDbScale
 70
     0
300
1:20
140
1.0
141
20.0
290
     0
  0
SCALE
  5
50
102
{ACAD_REACTORS
330
47
102
}
330
47
100
AcDbScale
 70
     0
300
1:30
140
1.0
141
30.0
290
     0
  0
SCALE
  5
51
102
{ACAD_REACTORS
330
47
102
}
330
47
100
AcDbScale
 70
     0
300
1:40
140
1.0
141
40.0
290
     0
  0
SCALE
  5
52
102
{ACAD_REACTORS
330
47
102
}
330
47
100
AcDbScale
 70
     0
300
1:50
140
1.0
141
50.0
290
     0
  0
SCALE
  5
53
102
{ACAD_REACTORS
330
47
102
}
330
47
100
AcDbScale
 70
     0
300
1:100
140
1.0
141
100.0
290
     0
  0
SCALE
  5
54
102
{ACAD_REACTORS
330
47
102
}
330
47
100
AcDbScale
 70
     0
300
2:1
140
2.0
141
1.0
290
     0
  0
SCALE
  5
55
102
{ACAD_REACTORS
330
47
102
}
330
47
100
AcDbScale
 70
     0
300
4:1
140
4.0
141
1.0
290
     0
  0
SCALE
  5
56
102
{ACAD_REACTORS
330
47
102
}
330
47
100
AcDbScale
 70
     0
300
8:1
140
8.0
141
1.0
290
     0
  0
SCALE
  5
57
102
{ACAD_REACTORS
330
47
102
}
330
47
100
AcDbScale
 70
     0
300
10:1
140
10.0
141
1.0
290
     0
  0
SCALE
  5
58
102
{ACAD_REACTORS
330
47
102
}
330
47
100
AcDbScale
 70
     0
300
100:1
140
100.0
141
1.0
290
     0
  0
SCALE
  5
59
102
{ACAD_REACTORS
330
47
102
}
330
47
100
AcDbScale
 70
     0
300
1/128" = 1'-0"
140
0.0078125
141
12.0
290
     0
  0
SCALE
  5
5A
102
{ACAD_REACTORS
330
47
102
}
330
47
100
AcDbScale
 70
     0
300
1/64" = 1'-0"
140
0.015625
141
12.0
290
     0
  0
SCALE
  5
5B
102
{ACAD_REACTORS
330
47
102
}
330
47
100
AcDbScale
 70
     0
300
1/32" = 1'-0"
140
0.03125
141
12.0
290
     0
  0
SCALE
  5
5C
102
{ACAD_REACTORS
330
47
102
}
330
47
100
AcDbScale
 70
     0
300
1/16" = 1'-0"
140
0.0625
141
12.0
290
     0
  0
SCALE
  5
5D
102
{ACAD_REACTORS
330
47
102
}
330
47
100
AcDbScale
 70
     0
300
3/32" = 1'-0"
140
0.09375
141
12.0
290
     0
  0
SCALE
  5
5E
102
{ACAD_REACTORS
330
47
102
}
330
47
100
AcDbScale
 70
     0
300
1/8" = 1'-0"
140
0.125
141
12.0
290
     0
  0
SCALE
  5
5F
102
{ACAD_REACTORS
330
47
102
}
330
47
100
AcDbScale
 70
     0
300
3/16" = 1'-0"
140
0.1875
141
12.0
290
     0
  0
SCALE
  5
60
102
{ACAD_REACTORS
330
47
102
}
330
47
100
AcDbScale
 70
     0
300
1/4" = 1'-0"
140
0.25
141
12.0
290
     0
  0
SCALE
  5
61
102
{ACAD_REACTORS
330
47
102
}
330
47
100
AcDbScale
 70
     0
300
3/8" = 1'-0"
140
0.375
141
12.0
290
     0
  0
SCALE
  5
62
102
{ACAD_REACTORS
330
47
102
}
330
47
100
AcDbScale
 70
     0
300
1/2" = 1'-0"
140
0.5
141
12.0
290
     0
  0
SCALE
  5
63
102
{ACAD_REACTORS
330
47
102
}
330
47
100
AcDbScale
 70
     0
300
3/4" = 1'-0"
140
0.75
141
12.0
290
     0
  0
SCALE
  5
64
102
{ACAD_REACTORS
330
47
102
}
330
47
100
AcDbScale
 70
     0
300
1" = 1'-0"
140
1.0
141
12.0
290
     0
  0
SCALE
  5
65
102
{ACAD_REACTORS
330
47
102
}
330
47
100
AcDbScale
 70
     0
300
1-1/2" = 1'-0"
140
1.5
141
12.0
290
     0
  0
SCALE
  5
66
102
{ACAD_REACTORS
330
47
102
}
330
47
100
AcDbScale
 70
     0
300
3" = 1'-0"
140
3.0
141
12.0
290
     0
  0
SCALE
  5
67
102
{ACAD_REACTORS
330
47
102
}
330
47
100
AcDbScale
 70
     0
300
6" = 1'-0"
140
6.0
141
12.0
290
     0
  0
SCALE
  5
68
102
{ACAD_REACTORS
330
47
102
}
330
47
100
AcDbScale
 70
     0
300
1'-0" = 1'-0"
140
12.0
141
12.0
290
     0
  0
ENDSEC
  0
EOF
